  0
SECTION
  2
HEADER
  9
$ACADVER
  1
AC1012
  9
$DWGCODEPAGE
  3
ascii
  9
$INSBASE
 10
0.0
 20
0.0
 30
0.0
  9
$EXTMIN
 10
1.000000000000000E+20
 20
1.000000000000000E+20
 30
1.000000000000000E+20
  9
$EXTMAX
 10
-1.000000000000000E+20
 20
-1.000000000000000E+20
 30
-1.000000000000000E+20
  9
$LIMMIN
 10
0.0
 20
0.0
  9
$LIMMAX
 10
12.0
 20
9.0
  9
$ORTHOMODE
 70
     0
  9
$REGENMODE
 70
     1
  9
$FILLMODE
 70
     1
  9
$QTEXTMODE
 70
     0
  9
$MIRRTEXT
 70
     1
  9
$DRAGMODE
 70
     2
  9
$LTSCALE
 40
1.0
  9
$OSMODE
 70
    37
  9
$ATTMODE
 70
     1
  9
$TEXTSIZE
 40
0.2
  9
$TRACEWID
 40
0.05
  9
$TEXTSTYLE
  7
STANDARD
  9
$CLAYER
  8
0
  9
$CELTYPE
  6
BYLAYER
  9
$CECOLOR
 62
   256
  9
$CELTSCALE
 40
1.0
  9
$DELOBJ
 70
     1
  9
$DISPSILH
 70
     0
  9
$DIMSCALE
 40
1.0
  9
$DIMASZ
 40
0.18
  9
$DIMEXO
 40
0.0625
  9
$DIMDLI
 40
0.38
  9
$DIMRND
 40
0.0
  9
$DIMDLE
 40
0.0
  9
$DIMEXE
 40
0.18
  9
$DIMTP
 40
0.0
  9
$DIMTM
 40
0.0
  9
$DIMTXT
 40
0.18
  9
$DIMCEN
 40
0.09
  9
$DIMTSZ
 40
0.0
  9
$DIMTOL
 70
     0
  9
$DIMLIM
 70
     0
  9
$DIMTIH
 70
     1
  9
$DIMTOH
 70
     1
  9
$DIMSE1
 70
     0
  9
$DIMSE2
 70
     0
  9
$DIMTAD
 70
     0
  9
$DIMZIN
 70
     0
  9
$DIMBLK
  1

  9
$DIMASO
 70
     1
  9
$DIMSHO
 70
     1
  9
$DIMPOST
  1

  9
$DIMAPOST
  1

  9
$DIMALT
 70
     0
  9
$DIMALTD
 70
     2
  9
$DIMALTF
 40
25.4
  9
$DIMLFAC
 40
1.0
  9
$DIMTOFL
 70
     0
  9
$DIMTVP
 40
0.0
  9
$DIMTIX
 70
     0
  9
$DIMSOXD
 70
     0
  9
$DIMSAH
 70
     0
  9
$DIMBLK1
  1

  9
$DIMBLK2
  1

  9
$DIMSTYLE
  2
STANDARD
  9
$DIMCLRD
 70
     0
  9
$DIMCLRE
 70
     0
  9
$DIMCLRT
 70
     0
  9
$DIMTFAC
 40
1.0
  9
$DIMGAP
 40
0.09
  9
$DIMJUST
 70
     0
  9
$DIMSD1
 70
     0
  9
$DIMSD2
 70
     0
  9
$DIMTOLJ
 70
     1
  9
$DIMTZIN
 70
     0
  9
$DIMALTZ
 70
     0
  9
$DIMALTTZ
 70
     0
  9
$DIMFIT
 70
     3
  9
$DIMUPT
 70
     0
  9
$DIMUNIT
 70
     2
  9
$DIMDEC
 70
     4
  9
$DIMTDEC
 70
     4
  9
$DIMALTU
 70
     2
  9
$DIMALTTD
 70
     2
  9
$DIMTXSTY
  7
STANDARD
  9
$DIMAUNIT
 70
     0
  9
$LUNITS
 70
     2
  9
$LUPREC
 70
     4
  9
$SKETCHINC
 40
0.1
  9
$FILLETRAD
 40
0.5
  9
$AUNITS
 70
     0
  9
$AUPREC
 70
     0
  9
$MENU
  1
.
  9
$ELEVATION
 40
0.0
  9
$PELEVATION
 40
0.0
  9
$THICKNESS
 40
0.0
  9
$LIMCHECK
 70
     0
  9
$CHAMFERA
 40
0.5
  9
$CHAMFERB
 40
0.5
  9
$CHAMFERC
 40
1.0
  9
$CHAMFERD
 40
0.0
  9
$SKPOLY
 70
     0
  9
$TDCREATE
 40
2454945.685497685
  9
$TDUPDATE
 40
2454945.685497697
  9
$TDINDWG
 40
0.0000000116
  9
$TDUSRTIMER
 40
0.0000000116
  9
$USRTIMER
 70
     1
  9
$ANGBASE
 50
0.0
  9
$ANGDIR
 70
     0
  9
$PDMODE
 70
     0
  9
$PDSIZE
 40
0.0
  9
$PLINEWID
 40
0.0
  9
$COORDS
 70
     1
  9
$SPLFRAME
 70
     0
  9
$SPLINETYPE
 70
     6
  9
$SPLINESEGS
 70
     8
  9
$ATTDIA
 70
     0
  9
$ATTREQ
 70
     1
  9
$HANDLING
 70
     1
  9
$HANDSEED
  5
2D9
  9
$SURFTAB1
 70
     6
  9
$SURFTAB2
 70
     6
  9
$SURFTYPE
 70
     6
  9
$SURFU
 70
     6
  9
$SURFV
 70
     6
  9
$UCSNAME
  2

  9
$UCSORG
 10
0.0
 20
0.0
 30
0.0
  9
$UCSXDIR
 10
1.0
 20
0.0
 30
0.0
  9
$UCSYDIR
 10
0.0
 20
1.0
 30
0.0
  9
$PUCSNAME
  2

  9
$PUCSORG
 10
0.0
 20
0.0
 30
0.0
  9
$PUCSXDIR
 10
1.0
 20
0.0
 30
0.0
  9
$PUCSYDIR
 10
0.0
 20
1.0
 30
0.0
  9
$USERI1
 70
     0
  9
$USERI2
 70
     0
  9
$USERI3
 70
     0
  9
$USERI4
 70
     0
  9
$USERI5
 70
     0
  9
$USERR1
 40
0.0
  9
$USERR2
 40
0.0
  9
$USERR3
 40
0.0
  9
$USERR4
 40
0.0
  9
$USERR5
 40
0.0
  9
$WORLDVIEW
 70
     1
  9
$SHADEDGE
 70
     3
  9
$SHADEDIF
 70
    70
  9
$TILEMODE
 70
     1
  9
$MAXACTVP
 70
    64
  9
$PINSBASE
 10
0.0
 20
0.0
 30
0.0
  9
$PLIMCHECK
 70
     0
  9
$PEXTMIN
 10
1.000000000000000E+20
 20
1.000000000000000E+20
 30
1.000000000000000E+20
  9
$PEXTMAX
 10
-1.000000000000000E+20
 20
-1.000000000000000E+20
 30
-1.000000000000000E+20
  9
$PLIMMIN
 10
0.0
 20
0.0
  9
$PLIMMAX
 10
12.0
 20
9.0
  9
$UNITMODE
 70
     0
  9
$VISRETAIN
 70
     1
  9
$PLINEGEN
 70
     0
  9
$PSLTSCALE
 70
     1
  9
$TREEDEPTH
 70
  3020
  9
$PICKSTYLE
 70
     1
  9
$CMLSTYLE
  2
STANDARD
  9
$CMLJUST
 70
     0
  9
$CMLSCALE
 40
1.0
  9
$SAVEIMAGES
 70
     1
  0
ENDSEC
  0
SECTION
  2
CLASSES
  0
CLASS
  1
ACDBDICTIONARYWDFLT
  2
AcDbDictionaryWithDefault
  3
ObjectDBX Classes
 90
    32768
280
     0
281
     0
  0
CLASS
  1
VISUALSTYLE
  2
AcDbVisualStyle
  3
ObjectDBX Classes
 90
     4095
280
     0
281
     0
  0
CLASS
  1
XRECORD
  2
AcDbXrecord
  3
AutoCAD 2000
 90
    32768
280
     0
281
     0
  0
CLASS
  1
LWPOLYLINE
  2
AcDbPolyline
  3
AutoCAD 2000
 90
    32768
280
     0
281
     1
  0
CLASS
  1
HATCH
  2
AcDbHatch
  3
AutoCAD 2000
 90
    32768
280
     0
281
     1
  0
CLASS
  1
ACDBPLACEHOLDER
  2
AcDbPlaceHolder
  3
ObjectDBX Classes
 90
        0
280
     0
281
     0
  0
CLASS
  1
LAYOUT
  2
AcDbLayout
  3
ObjectDBX Classes
 90
        0
280
     0
281
     0
  0
ENDSEC
  0
SECTION
  2
TABLES
  0
TABLE
  2
VPORT
  5
8
330
0
100
AcDbSymbolTable
 70
     1
  0
VPORT
  5
29
330
8
100
AcDbSymbolTableRecord
100
AcDbViewportTableRecord
  2
*ACTIVE
 70
     0
 10
0.0
 20
0.0
 11
1.0
 21
1.0
 12
0.0
 22
0.0
 13
0.0
 23
0.0
 14
0.5
 24
0.5
 15
0.5
 25
0.5
 16
0.0
 26
0.0
 36
1.0
 17
118.6564014894923
 27
129.9610591450238
 37
0.0
 40
65.32015936733393
 41
1.531856976472075
 42
50.0
 43
0.0
 44
0.0
 50
0.0
 51
0.0
 71
     0
 72
   100
 73
     1
 74
     3
 75
     0
 76
     0
 77
     0
 78
     0
  0
ENDTAB
  0
TABLE
  2
LTYPE
  5
5
330
0
100
AcDbSymbolTable
 70
     5
  0
LTYPE
  5
14
330
5
100
AcDbSymbolTableRecord
100
AcDbLinetypeTableRecord
  2
BYBLOCK
 70
     0
  3

 72
    65
 73
     0
 40
0.0
  0
LTYPE
  5
15
330
5
100
AcDbSymbolTableRecord
100
AcDbLinetypeTableRecord
  2
BYLAYER
 70
     0
  3

 72
    65
 73
     0
 40
0.0
  0
LTYPE
  5
16
330
5
100
AcDbSymbolTableRecord
100
AcDbLinetypeTableRecord
  2
CONTINUOUS
 70
     0
  3
Solid line
 72
    65
 73
     0
 40
0.0
  0
LTYPE
  5
CA
330
5
100
AcDbSymbolTableRecord
100
AcDbLinetypeTableRecord
  2
AI-LINETYPE-1
 70
     0
  3
Adobe Illustrator Linetype No. 1
 72
    65
 73
     4
 40
109.7260586998493
 49
54.86124931101628
 74
     0
 49
-27.43064080440388
 74
     0
 49
0.0035277800253007
 74
     0
 49
-27.43064080440388
 74
     0
  0
LTYPE
  5
D0
330
5
100
AcDbSymbolTableRecord
100
AcDbLinetypeTableRecord
  2
AI-LINETYPE-2
 70
     0
  3
Adobe Illustrator Linetype No. 2
 72
    65
 73
     4
 40
109.7260586998493
 49
54.86124931101628
 74
     0
 49
-27.43064080440388
 74
     0
 49
0.0035277800253007
 74
     0
 49
-27.43064080440388
 74
     0
  0
LTYPE
  5
1B1
330
5
100
AcDbSymbolTableRecord
100
AcDbLinetypeTableRecord
  2
AI-LINETYPE-3
 70
     0
  3
Adobe Illustrator Linetype No. 3
 72
    65
 73
     4
 40
109.7260586998493
 49
54.86124931101628
 74
     0
 49
-27.43064080440388
 74
     0
 49
0.0035277800253007
 74
     0
 49
-27.43064080440388
 74
     0
  0
LTYPE
  5
1B9
330
5
100
AcDbSymbolTableRecord
100
AcDbLinetypeTableRecord
  2
AI-LINETYPE-4
 70
     0
  3
Adobe Illustrator Linetype No. 4
 72
    65
 73
     4
 40
109.7260586998493
 49
54.86124931101628
 74
     0
 49
-27.43064080440388
 74
     0
 49
0.0035277800253007
 74
     0
 49
-27.43064080440388
 74
     0
  0
ENDTAB
  0
TABLE
  2
LAYER
  5
2
330
0
100
AcDbSymbolTable
 70
     3
  0
LAYER
  5
10
330
2
100
AcDbSymbolTableRecord
100
AcDbLayerTableRecord
  2
0
 70
     0
 62
     7
  6
CONTINUOUS
  0
LAYER
  5
3B
330
2
100
AcDbSymbolTableRecord
100
AcDbLayerTableRecord
  2
EBENE_5
 70
     0
 62
     7
  6
CONTINUOUS
  0
LAYER
  5
C5
330
2
100
AcDbSymbolTableRecord
100
AcDbLayerTableRecord
  2
EBENE_3
 70
     0
 62
     7
  6
CONTINUOUS
  0
ENDTAB
  0
TABLE
  2
STYLE
  5
3
330
0
100
AcDbSymbolTable
 70
     1
  0
STYLE
  5
11
330
3
100
AcDbSymbolTableRecord
100
AcDbTextStyleTableRecord
  2
STANDARD
 70
     0
 40
0.0
 41
1.0
 50
0.0
 71
     0
 42
0.2
  3
txt
  4

  0
ENDTAB
  0
TABLE
  2
VIEW
  5
6
330
0
100
AcDbSymbolTable
 70
     0
  0
ENDTAB
  0
TABLE
  2
UCS
  5
7
330
0
100
AcDbSymbolTable
 70
     0
  0
ENDTAB
  0
TABLE
  2
APPID
  5
9
330
0
100
AcDbSymbolTable
 70
     1
  0
APPID
  5
12
330
9
100
AcDbSymbolTableRecord
100
AcDbRegAppTableRecord
  2
ACAD
 70
     0
  0
ENDTAB
  0
TABLE
  2
DIMSTYLE
  5
A
330
0
100
AcDbSymbolTable
 70
     1
  0
DIMSTYLE
105
27
330
A
100
AcDbSymbolTableRecord
100
AcDbDimStyleTableRecord
  2
STANDARD
 70
     0
  3

  4

  5

  6

  7

 40
1.0
 41
0.18
 42
0.0625
 43
0.38
 44
0.18
 45
0.0
 46
0.0
 47
0.0
 48
0.0
140
0.18
141
0.09
142
0.0
143
25.4
144
1.0
145
0.0
146
1.0
147
0.09
 71
     0
 72
     0
 73
     1
 74
     1
 75
     0
 76
     0
 77
     0
 78
     0
170
     0
171
     2
172
     0
173
     0
174
     0
175
     0
176
     0
177
     0
178
     0
270
     2
271
     4
272
     4
273
     2
274
     2
340
11
275
     0
280
     0
281
     0
282
     0
283
     1
284
     0
285
     0
286
     0
287
     3
288
     0
  0
ENDTAB
  0
TABLE
  2
BLOCK_RECORD
  5
1
330
0
100
AcDbSymbolTable
 70
    49
  0
BLOCK_RECORD
  5
1F
330
1
100
AcDbSymbolTableRecord
100
AcDbBlockTableRecord
  2
*MODEL_SPACE
  0
BLOCK_RECORD
  5
1B
330
1
100
AcDbSymbolTableRecord
100
AcDbBlockTableRecord
  2
*PAPER_SPACE
  0
BLOCK_RECORD
  5
5E
330
1
100
AcDbSymbolTableRecord
100
AcDbBlockTableRecord
  2
BLOCK_2
  0
BLOCK_RECORD
  5
67
330
1
100
AcDbSymbolTableRecord
100
AcDbBlockTableRecord
  2
BLOCK_3
  0
BLOCK_RECORD
  5
73
330
1
100
AcDbSymbolTableRecord
100
AcDbBlockTableRecord
  2
BLOCK_4
  0
BLOCK_RECORD
  5
EC
330
1
100
AcDbSymbolTableRecord
100
AcDbBlockTableRecord
  2
BLOCK_5
  0
BLOCK_RECORD
  5
FC
330
1
100
AcDbSymbolTableRecord
100
AcDbBlockTableRecord
  2
BLOCK_6
  0
BLOCK_RECORD
  5
104
330
1
100
AcDbSymbolTableRecord
100
AcDbBlockTableRecord
  2
BLOCK_7
  0
BLOCK_RECORD
  5
11D
330
1
100
AcDbSymbolTableRecord
100
AcDbBlockTableRecord
  2
BLOCK_8
  0
BLOCK_RECORD
  5
125
330
1
100
AcDbSymbolTableRecord
100
AcDbBlockTableRecord
  2
BLOCK_9
  0
BLOCK_RECORD
  5
144
330
1
100
AcDbSymbolTableRecord
100
AcDbBlockTableRecord
  2
BLOCK_10
  0
BLOCK_RECORD
  5
14C
330
1
100
AcDbSymbolTableRecord
100
AcDbBlockTableRecord
  2
BLOCK_11
  0
BLOCK_RECORD
  5
154
330
1
100
AcDbSymbolTableRecord
100
AcDbBlockTableRecord
  2
BLOCK_12
  0
BLOCK_RECORD
  5
16D
330
1
100
AcDbSymbolTableRecord
100
AcDbBlockTableRecord
  2
BLOCK_13
  0
BLOCK_RECORD
  5
175
330
1
100
AcDbSymbolTableRecord
100
AcDbBlockTableRecord
  2
BLOCK_14
  0
BLOCK_RECORD
  5
18E
330
1
100
AcDbSymbolTableRecord
100
AcDbBlockTableRecord
  2
BLOCK_15
  0
BLOCK_RECORD
  5
196
330
1
100
AcDbSymbolTableRecord
100
AcDbBlockTableRecord
  2
BLOCK_16
  0
BLOCK_RECORD
  5
1CB
330
1
100
AcDbSymbolTableRecord
100
AcDbBlockTableRecord
  2
BLOCK_17
  0
BLOCK_RECORD
  5
1D8
330
1
100
AcDbSymbolTableRecord
100
AcDbBlockTableRecord
  2
BLOCK_18
  0
BLOCK_RECORD
  5
1E0
330
1
100
AcDbSymbolTableRecord
100
AcDbBlockTableRecord
  2
BLOCK_19
  0
BLOCK_RECORD
  5
1E8
330
1
100
AcDbSymbolTableRecord
100
AcDbBlockTableRecord
  2
BLOCK_20
  0
BLOCK_RECORD
  5
1F5
330
1
100
AcDbSymbolTableRecord
100
AcDbBlockTableRecord
  2
*U20
  0
BLOCK_RECORD
  5
217
330
1
100
AcDbSymbolTableRecord
100
AcDbBlockTableRecord
  2
*U21
  0
BLOCK_RECORD
  5
25C
330
1
100
AcDbSymbolTableRecord
100
AcDbBlockTableRecord
  2
*U22
  0
BLOCK_RECORD
  5
260
330
1
100
AcDbSymbolTableRecord
100
AcDbBlockTableRecord
  2
*U23
  0
BLOCK_RECORD
  5
264
330
1
100
AcDbSymbolTableRecord
100
AcDbBlockTableRecord
  2
*U24
  0
BLOCK_RECORD
  5
268
330
1
100
AcDbSymbolTableRecord
100
AcDbBlockTableRecord
  2
*U25
  0
BLOCK_RECORD
  5
26C
330
1
100
AcDbSymbolTableRecord
100
AcDbBlockTableRecord
  2
*U26
  0
BLOCK_RECORD
  5
271
330
1
100
AcDbSymbolTableRecord
100
AcDbBlockTableRecord
  2
*U27
  0
BLOCK_RECORD
  5
276
330
1
100
AcDbSymbolTableRecord
100
AcDbBlockTableRecord
  2
*U28
  0
BLOCK_RECORD
  5
27B
330
1
100
AcDbSymbolTableRecord
100
AcDbBlockTableRecord
  2
*U29
  0
BLOCK_RECORD
  5
280
330
1
100
AcDbSymbolTableRecord
100
AcDbBlockTableRecord
  2
*U30
  0
BLOCK_RECORD
  5
285
330
1
100
AcDbSymbolTableRecord
100
AcDbBlockTableRecord
  2
*U31
  0
BLOCK_RECORD
  5
28A
330
1
100
AcDbSymbolTableRecord
100
AcDbBlockTableRecord
  2
*U32
  0
BLOCK_RECORD
  5
28F
330
1
100
AcDbSymbolTableRecord
100
AcDbBlockTableRecord
  2
*U33
  0
BLOCK_RECORD
  5
294
330
1
100
AcDbSymbolTableRecord
100
AcDbBlockTableRecord
  2
*U34
  0
BLOCK_RECORD
  5
299
330
1
100
AcDbSymbolTableRecord
100
AcDbBlockTableRecord
  2
*U35
  0
BLOCK_RECORD
  5
29E
330
1
100
AcDbSymbolTableRecord
100
AcDbBlockTableRecord
  2
*U36
  0
BLOCK_RECORD
  5
2A3
330
1
100
AcDbSymbolTableRecord
100
AcDbBlockTableRecord
  2
*U37
  0
BLOCK_RECORD
  5
2A8
330
1
100
AcDbSymbolTableRecord
100
AcDbBlockTableRecord
  2
*U38
  0
BLOCK_RECORD
  5
2AD
330
1
100
AcDbSymbolTableRecord
100
AcDbBlockTableRecord
  2
*U39
  0
BLOCK_RECORD
  5
2B2
330
1
100
AcDbSymbolTableRecord
100
AcDbBlockTableRecord
  2
*U40
  0
BLOCK_RECORD
  5
2B7
330
1
100
AcDbSymbolTableRecord
100
AcDbBlockTableRecord
  2
*U41
  0
BLOCK_RECORD
  5
2BB
330
1
100
AcDbSymbolTableRecord
100
AcDbBlockTableRecord
  2
*U42
  0
BLOCK_RECORD
  5
2BF
330
1
100
AcDbSymbolTableRecord
100
AcDbBlockTableRecord
  2
*U43
  0
BLOCK_RECORD
  5
2C3
330
1
100
AcDbSymbolTableRecord
100
AcDbBlockTableRecord
  2
*U44
  0
BLOCK_RECORD
  5
2C7
330
1
100
AcDbSymbolTableRecord
100
AcDbBlockTableRecord
  2
*U45
  0
BLOCK_RECORD
  5
2CB
330
1
100
AcDbSymbolTableRecord
100
AcDbBlockTableRecord
  2
*U46
  0
BLOCK_RECORD
  5
2CF
330
1
100
AcDbSymbolTableRecord
100
AcDbBlockTableRecord
  2
*U47
  0
BLOCK_RECORD
  5
2D4
330
1
100
AcDbSymbolTableRecord
100
AcDbBlockTableRecord
  2
*U48
  0
ENDTAB
  0
ENDSEC
  0
SECTION
  2
BLOCKS
  0
BLOCK
  5
20
330
1F
100
AcDbEntity
  8
0
100
AcDbBlockBegin
  2
*MODEL_SPACE
 70
     0
 71
     0
 10
0.0
 20
0.0
 30
0.0
  3
*MODEL_SPACE
  1

  0
ENDBLK
  5
21
330
1F
100
AcDbEntity
  8
0
100
AcDbBlockEnd
  0
BLOCK
  5
1C
330
1B
100
AcDbEntity
 67
     1
  8
0
100
AcDbBlockBegin
  2
*PAPER_SPACE
 70
     0
 71
     0
 10
0.0
 20
0.0
 30
0.0
  3
*PAPER_SPACE
  1

  0
ENDBLK
  5
1D
330
1B
100
AcDbEntity
 67
     1
  8
0
100
AcDbBlockEnd
  0
BLOCK
  5
60
330
5E
100
AcDbEntity
  8
0
100
AcDbBlockBegin
  2
BLOCK_2
 70
     0
 71
     0
 10
0.0
 20
0.0
 30
0.0
  3
BLOCK_2
  1

  0
POLYLINE
  5
62
330
5E
100
AcDbEntity
  8
EBENE_5
100
AcDb2dPolyline
 66
     1
 10
0.0
 20
0.0
 30
0.0
  0
VERTEX
  5
63
330
62
100
AcDbEntity
  8
EBENE_5
100
AcDbVertex
100
AcDb2dVertex
 10
82.55108796650218
 20
160.8609160831777
 30
0.0
  0
VERTEX
  5
64
330
62
100
AcDbEntity
  8
EBENE_5
100
AcDbVertex
100
AcDb2dVertex
 10
82.55108796650218
 20
160.8609160831777
 30
0.0
  0
SEQEND
  5
65
330
62
100
AcDbEntity
  8
EBENE_5
  0
ENDBLK
  5
61
330
5E
100
AcDbEntity
  8
0
100
AcDbBlockEnd
  0
BLOCK
  5
69
330
67
100
AcDbEntity
  8
0
100
AcDbBlockBegin
  2
BLOCK_3
 70
     0
 71
     0
 10
0.0
 20
0.0
 30
0.0
  3
BLOCK_3
  1

  0
SPLINE
  5
6B
330
67
100
AcDbEntity
  8
EBENE_5
 62
   250
100
AcDbSpline
210
0.0
220
0.0
230
1.0
 70
    24
 71
     3
 72
     8
 73
     4
 74
     0
 42
0.0000000001
 43
0.0000000001
 40
0.0
 40
0.0
 40
0.0
 40
0.0
 40
1.0
 40
1.0
 40
1.0
 40
1.0
 10
94.2933591647388
 20
156.4212186024925
 30
0.0
 10
93.29290277582673
 20
156.4212186024925
 30
0.0
 10
92.29313540646625
 20
156.4212186024925
 30
0.0
 10
91.29336803710576
 20
156.4212186024925
 30
0.0
  0
POLYLINE
  5
6C
330
67
100
AcDbEntity
  8
EBENE_5
100
AcDb2dPolyline
 66
     1
 10
0.0
 20
0.0
 30
0.0
  0
VERTEX
  5
6D
330
6C
100
AcDbEntity
  8
EBENE_5
100
AcDbVertex
100
AcDb2dVertex
 10
91.52763468464715
 20
157.221514811667
 30
0.0
  0
VERTEX
  5
6E
330
6C
100
AcDbEntity
  8
EBENE_5
100
AcDbVertex
100
AcDb2dVertex
 10
90.14132734684337
 20
156.4212186024925
 30
0.0
  0
VERTEX
  5
6F
330
6C
100
AcDbEntity
  8
EBENE_5
100
AcDbVertex
100
AcDb2dVertex
 10
91.52763468464715
 20
155.620922393318
 30
0.0
  0
VERTEX
  5
70
330
6C
100
AcDbEntity
  8
EBENE_5
100
AcDbVertex
100
AcDb2dVertex
 10
91.52763468464715
 20
157.221514811667
 30
0.0
  0
SEQEND
  5
71
330
6C
100
AcDbEntity
  8
EBENE_5
  0
INSERT
  5
72
330
67
100
AcDbEntity
  8
EBENE_5
 62
   250
100
AcDbBlockReference
  2
*U45
 10
0.0
 20
0.0
 30
0.0
1001
ACAD
1002
{
1000
R14_HATCH_DATA
1000
72
1011
1.0
1021
0.0
1031
0.0
1011
0.0
1021
1.0
1031
0.0
1011
0.0
1021
0.0
1031
1.0
1040
0.0
1010
0.0
1020
0.0
1030
1.0
1000
SOLID
1070
     1
1070
     1
1071
        1
1071
        1
1071
        3
1070
     1
1040
91.52763468464715
1040
157.221514811667
1040
90.14132734684337
1040
156.4212186024925
1070
     1
1040
90.14132734684337
1040
156.4212186024925
1040
91.52763468464715
1040
155.620922393318
1070
     1
1040
91.52763468464715
1040
155.620922393318
1040
91.52763468464715
1040
157.221514811667
1071
        0
1070
     2
1070
     1
1071
        0
1002
}
  0
ENDBLK
  5
6A
330
67
100
AcDbEntity
  8
0
100
AcDbBlockEnd
  0
BLOCK
  5
75
330
73
100
AcDbEntity
  8
0
100
AcDbBlockBegin
  2
BLOCK_4
 70
     0
 71
     0
 10
0.0
 20
0.0
 30
0.0
  3
BLOCK_4
  1

  0
SPLINE
  5
77
330
73
100
AcDbEntity
  8
EBENE_5
 62
   250
100
AcDbSpline
210
0.0
220
0.0
230
1.0
 70
    24
 71
     3
 72
     8
 73
     4
 74
     0
 42
0.0000000001
 43
0.0000000001
 40
0.0
 40
0.0
 40
0.0
 40
0.0
 40
1.0
 40
1.0
 40
1.0
 40
1.0
 10
104.6320975363818
 20
156.4212186024925
 30
0.0
 10
103.6319856572456
 20
156.4212186024925
 30
0.0
 10
102.6318737781093
 20
156.4212186024925
 30
0.0
 10
101.6321064087488
 20
156.4212186024925
 30
0.0
  0
POLYLINE
  5
78
330
73
100
AcDbEntity
  8
EBENE_5
100
AcDb2dPolyline
 66
     1
 10
0.0
 20
0.0
 30
0.0
  0
VERTEX
  5
79
330
78
100
AcDbEntity
  8
EBENE_5
100
AcDbVertex
100
AcDb2dVertex
 10
104.2307436475793
 20
155.620922393318
 30
0.0
  0
VERTEX
  5
7A
330
78
100
AcDbEntity
  8
EBENE_5
100
AcDbVertex
100
AcDb2dVertex
 10
105.7655346987512
 20
156.4212186024925
 30
0.0
  0
VERTEX
  5
7B
330
78
100
AcDbEntity
  8
EBENE_5
100
AcDbVertex
100
AcDb2dVertex
 10
104.2307436475793
 20
157.221514811667
 30
0.0
  0
VERTEX
  5
7C
330
78
100
AcDbEntity
  8
EBENE_5
100
AcDbVertex
100
AcDb2dVertex
 10
104.2307436475793
 20
155.620922393318
 30
0.0
  0
SEQEND
  5
7D
330
78
100
AcDbEntity
  8
EBENE_5
  0
INSERT
  5
7E
330
73
100
AcDbEntity
  8
EBENE_5
 62
   250
100
AcDbBlockReference
  2
*U46
 10
0.0
 20
0.0
 30
0.0
1001
ACAD
1002
{
1000
R14_HATCH_DATA
1000
7E
1011
1.0
1021
0.0
1031
0.0
1011
0.0
1021
1.0
1031
0.0
1011
0.0
1021
0.0
1031
1.0
1040
0.0
1010
0.0
1020
0.0
1030
1.0
1000
SOLID
1070
     1
1070
     1
1071
        1
1071
        1
1071
        3
1070
     1
1040
104.2307436475793
1040
155.620922393318
1040
105.7655346987512
1040
156.4212186024925
1070
     1
1040
105.7655346987512
1040
156.4212186024925
1040
104.2307436475793
1040
157.221514811667
1070
     1
1040
104.2307436475793
1040
157.221514811667
1040
104.2307436475793
1040
155.620922393318
1071
        0
1070
     2
1070
     1
1071
        0
1002
}
  0
ENDBLK
  5
76
330
73
100
AcDbEntity
  8
0
100
AcDbBlockEnd
  0
BLOCK
  5
EE
330
EC
100
AcDbEntity
  8
0
100
AcDbBlockBegin
  2
BLOCK_5
 70
     0
 71
     0
 10
0.0
 20
0.0
 30
0.0
  3
BLOCK_5
  1

  0
POLYLINE
  5
F0
330
EC
100
AcDbEntity
  8
EBENE_3
 62
   250
100
AcDb2dPolyline
 66
     1
 10
0.0
 20
0.0
 30
0.0
  0
VERTEX
  5
F1
330
F0
100
AcDbEntity
  8
EBENE_3
 62
   250
100
AcDbVertex
100
AcDb2dVertex
 10
115.7173885921752
 20
109.5839087987881
 30
0.0
  0
VERTEX
  5
F2
330
F0
100
AcDbEntity
  8
EBENE_3
 62
   250
100
AcDbVertex
100
AcDb2dVertex
 10
115.7173885921752
 20
114.6771413241586
 30
0.0
  0
SEQEND
  5
F3
330
F0
100
AcDbEntity
  8
EBENE_3
  0
ENDBLK
  5
EF
330
EC
100
AcDbEntity
  8
0
100
AcDbBlockEnd
  0
BLOCK
  5
FE
330
FC
100
AcDbEntity
  8
0
100
AcDbBlockBegin
  2
BLOCK_6
 70
     0
 71
     0
 10
0.0
 20
0.0
 30
0.0
  3
BLOCK_6
  1

  0
POLYLINE
  5
100
330
FC
100
AcDbEntity
  8
EBENE_3
 62
   250
100
AcDb2dPolyline
 66
     1
 10
0.0
 20
0.0
 30
0.0
  0
VERTEX
  5
101
330
100
100
AcDbEntity
  8
EBENE_3
 62
   250
100
AcDbVertex
100
AcDb2dVertex
 10
78.09485401657874
 20
104.7208088036493
 30
0.0
  0
VERTEX
  5
102
330
100
100
AcDbEntity
  8
EBENE_3
 62
   250
100
AcDbVertex
100
AcDb2dVertex
 10
81.54839226404744
 20
104.7208088036493
 30
0.0
  0
SEQEND
  5
103
330
100
100
AcDbEntity
  8
EBENE_3
  0
ENDBLK
  5
FF
330
FC
100
AcDbEntity
  8
0
100
AcDbBlockEnd
  0
BLOCK
  5
106
330
104
100
AcDbEntity
  8
0
100
AcDbBlockBegin
  2
BLOCK_7
 70
     0
 71
     0
 10
0.0
 20
0.0
 30
0.0
  3
BLOCK_7
  1

  0
POLYLINE
  5
108
330
104
100
AcDbEntity
  8
EBENE_3
 62
   250
100
AcDb2dPolyline
 66
     1
 10
0.0
 20
0.0
 30
0.0
  0
VERTEX
  5
109
330
108
100
AcDbEntity
  8
EBENE_3
 62
   250
100
AcDbVertex
100
AcDb2dVertex
 10
78.0889973503902
 20
102.4213783050978
 30
0.0
  0
VERTEX
  5
10A
330
108
100
AcDbEntity
  8
EBENE_3
 62
   250
100
AcDbVertex
100
AcDb2dVertex
 10
81.54994255803851
 20
102.4213783050978
 30
0.0
  0
SEQEND
  5
10B
330
108
100
AcDbEntity
  8
EBENE_3
  0
ENDBLK
  5
107
330
104
100
AcDbEntity
  8
0
100
AcDbBlockEnd
  0
BLOCK
  5
11F
330
11D
100
AcDbEntity
  8
0
100
AcDbBlockBegin
  2
BLOCK_8
 70
     0
 71
     0
 10
0.0
 20
0.0
 30
0.0
  3
BLOCK_8
  1

  0
POLYLINE
  5
121
330
11D
100
AcDbEntity
  8
EBENE_3
 62
   250
100
AcDb2dPolyline
 66
     1
 10
0.0
 20
0.0
 30
0.0
  0
VERTEX
  5
122
330
121
100
AcDbEntity
  8
EBENE_3
 62
   250
100
AcDbVertex
100
AcDb2dVertex
 10
72.19701890983623
 20
127.0512434512054
 30
0.0
  0
VERTEX
  5
123
330
121
100
AcDbEntity
  8
EBENE_3
 62
   250
100
AcDbVertex
100
AcDb2dVertex
 10
81.5251378541812
 20
127.0512434512054
 30
0.0
  0
SEQEND
  5
124
330
121
100
AcDbEntity
  8
EBENE_3
  0
ENDBLK
  5
120
330
11D
100
AcDbEntity
  8
0
100
AcDbBlockEnd
  0
BLOCK
  5
127
330
125
100
AcDbEntity
  8
0
100
AcDbBlockBegin
  2
BLOCK_9
 70
     0
 71
     0
 10
0.0
 20
0.0
 30
0.0
  3
BLOCK_9
  1

  0
POLYLINE
  5
129
330
125
100
AcDbEntity
  8
EBENE_3
 62
   250
100
AcDb2dPolyline
 66
     1
 10
0.0
 20
0.0
 30
0.0
  0
VERTEX
  5
12A
330
129
100
AcDbEntity
  8
EBENE_3
 62
   250
100
AcDbVertex
100
AcDb2dVertex
 10
72.21217733997126
 20
119.5361072019878
 30
0.0
  0
VERTEX
  5
12B
330
129
100
AcDbEntity
  8
EBENE_3
 62
   250
100
AcDbVertex
100
AcDb2dVertex
 10
81.5251378541812
 20
119.5361072019878
 30
0.0
  0
SEQEND
  5
12C
330
129
100
AcDbEntity
  8
EBENE_3
  0
ENDBLK
  5
128
330
125
100
AcDbEntity
  8
0
100
AcDbBlockEnd
  0
BLOCK
  5
146
330
144
100
AcDbEntity
  8
0
100
AcDbBlockBegin
  2
BLOCK_10
 70
     0
 71
     0
 10
0.0
 20
0.0
 30
0.0
  3
BLOCK_10
  1

  0
POLYLINE
  5
148
330
144
100
AcDbEntity
  8
EBENE_3
 62
   250
100
AcDb2dPolyline
 66
     1
 10
0.0
 20
0.0
 30
0.0
  0
VERTEX
  5
149
330
148
100
AcDbEntity
  8
EBENE_3
 62
   250
100
AcDbVertex
100
AcDb2dVertex
 10
149.8913803120519
 20
127.0567556076182
 30
0.0
  0
VERTEX
  5
14A
330
148
100
AcDbEntity
  8
EBENE_3
 62
   250
100
AcDbVertex
100
AcDb2dVertex
 10
165.1772790641279
 20
127.0567556076182
 30
0.0
  0
SEQEND
  5
14B
330
148
100
AcDbEntity
  8
EBENE_3
  0
ENDBLK
  5
147
330
144
100
AcDbEntity
  8
0
100
AcDbBlockEnd
  0
BLOCK
  5
14E
330
14C
100
AcDbEntity
  8
0
100
AcDbBlockBegin
  2
BLOCK_11
 70
     0
 71
     0
 10
0.0
 20
0.0
 30
0.0
  3
BLOCK_11
  1

  0
POLYLINE
  5
150
330
14C
100
AcDbEntity
  8
EBENE_3
 62
   250
100
AcDb2dPolyline
 66
     1
 10
0.0
 20
0.0
 30
0.0
  0
VERTEX
  5
151
330
150
100
AcDbEntity
  8
EBENE_3
 62
   250
100
AcDbVertex
100
AcDb2dVertex
 10
149.8913803120519
 20
102.4282685006137
 30
0.0
  0
VERTEX
  5
152
330
150
100
AcDbEntity
  8
EBENE_3
 62
   250
100
AcDbVertex
100
AcDb2dVertex
 10
165.1724559272668
 20
102.4282685006137
 30
0.0
  0
SEQEND
  5
153
330
150
100
AcDbEntity
  8
EBENE_3
  0
ENDBLK
  5
14F
330
14C
100
AcDbEntity
  8
0
100
AcDbBlockEnd
  0
BLOCK
  5
156
330
154
100
AcDbEntity
  8
0
100
AcDbBlockBegin
  2
BLOCK_12
 70
     0
 71
     0
 10
0.0
 20
0.0
 30
0.0
  3
BLOCK_12
  1

  0
POLYLINE
  5
158
330
154
100
AcDbEntity
  8
EBENE_3
100
AcDb2dPolyline
 66
     1
 10
0.0
 20
0.0
 30
0.0
  0
VERTEX
  5
159
330
158
100
AcDbEntity
  8
EBENE_3
100
AcDbVertex
100
AcDb2dVertex
 10
164.9347441819674
 20
102.4999265339793
 30
0.0
  0
VERTEX
  5
15A
330
158
100
AcDbEntity
  8
EBENE_3
100
AcDbVertex
100
AcDb2dVertex
 10
164.9347441819674
 20
102.4999265339793
 30
0.0
  0
SEQEND
  5
15B
330
158
100
AcDbEntity
  8
EBENE_3
  0
ENDBLK
  5
157
330
154
100
AcDbEntity
  8
0
100
AcDbBlockEnd
  0
BLOCK
  5
16F
330
16D
100
AcDbEntity
  8
0
100
AcDbBlockBegin
  2
BLOCK_13
 70
     0
 71
     0
 10
0.0
 20
0.0
 30
0.0
  3
BLOCK_13
  1

  0
POLYLINE
  5
171
330
16D
100
AcDbEntity
  8
EBENE_3
 62
   250
100
AcDb2dPolyline
 66
     1
 10
0.0
 20
0.0
 30
0.0
  0
VERTEX
  5
172
330
171
100
AcDbEntity
  8
EBENE_3
 62
   250
100
AcDbVertex
100
AcDb2dVertex
 10
82.54523130031365
 20
131.5333156343136
 30
0.0
  0
VERTEX
  5
173
330
171
100
AcDbEntity
  8
EBENE_3
 62
   250
100
AcDbVertex
100
AcDb2dVertex
 10
82.54523130031365
 20
134.3996369689377
 30
0.0
  0
SEQEND
  5
174
330
171
100
AcDbEntity
  8
EBENE_3
  0
ENDBLK
  5
170
330
16D
100
AcDbEntity
  8
0
100
AcDbBlockEnd
  0
BLOCK
  5
177
330
175
100
AcDbEntity
  8
0
100
AcDbBlockBegin
  2
BLOCK_14
 70
     0
 71
     0
 10
0.0
 20
0.0
 30
0.0
  3
BLOCK_14
  1

  0
POLYLINE
  5
179
330
175
100
AcDbEntity
  8
EBENE_3
 62
   250
100
AcDb2dPolyline
 66
     1
 10
0.0
 20
0.0
 30
0.0
  0
VERTEX
  5
17A
330
179
100
AcDbEntity
  8
EBENE_3
 62
   250
100
AcDbVertex
100
AcDb2dVertex
 10
148.8943690208978
 20
131.5653550434626
 30
0.0
  0
VERTEX
  5
17B
330
179
100
AcDbEntity
  8
EBENE_3
 62
   250
100
AcDbVertex
100
AcDb2dVertex
 10
148.8943690208978
 20
134.4313318683109
 30
0.0
  0
SEQEND
  5
17C
330
179
100
AcDbEntity
  8
EBENE_3
  0
ENDBLK
  5
178
330
175
100
AcDbEntity
  8
0
100
AcDbBlockEnd
  0
BLOCK
  5
190
330
18E
100
AcDbEntity
  8
0
100
AcDbBlockBegin
  2
BLOCK_15
 70
     0
 71
     0
 10
0.0
 20
0.0
 30
0.0
  3
BLOCK_15
  1

  0
POLYLINE
  5
192
330
18E
100
AcDbEntity
  8
EBENE_3
 62
   250
100
AcDb2dPolyline
 66
     1
 10
0.0
 20
0.0
 30
0.0
  0
VERTEX
  5
193
330
192
100
AcDbEntity
  8
EBENE_3
 62
   250
100
AcDbVertex
100
AcDb2dVertex
 10
84.84001091689193
 20
128.0055355301608
 30
0.0
  0
VERTEX
  5
194
330
192
100
AcDbEntity
  8
EBENE_3
 62
   250
100
AcDbVertex
100
AcDb2dVertex
 10
84.84001091689193
 20
130.8718568647849
 30
0.0
  0
SEQEND
  5
195
330
192
100
AcDbEntity
  8
EBENE_3
  0
ENDBLK
  5
191
330
18E
100
AcDbEntity
  8
0
100
AcDbBlockEnd
  0
BLOCK
  5
198
330
196
100
AcDbEntity
  8
0
100
AcDbBlockBegin
  2
BLOCK_16
 70
     0
 71
     0
 10
0.0
 20
0.0
 30
0.0
  3
BLOCK_16
  1

  0
POLYLINE
  5
19A
330
196
100
AcDbEntity
  8
EBENE_3
 62
   250
100
AcDb2dPolyline
 66
     1
 10
0.0
 20
0.0
 30
0.0
  0
VERTEX
  5
19B
330
19A
100
AcDbEntity
  8
EBENE_3
 62
   250
100
AcDbVertex
100
AcDb2dVertex
 10
146.6057905802839
 20
128.0696143484589
 30
0.0
  0
VERTEX
  5
19C
330
19A
100
AcDbEntity
  8
EBENE_3
 62
   250
100
AcDbVertex
100
AcDb2dVertex
 10
146.6057905802839
 20
130.9355911733072
 30
0.0
  0
SEQEND
  5
19D
330
19A
100
AcDbEntity
  8
EBENE_3
  0
ENDBLK
  5
199
330
196
100
AcDbEntity
  8
0
100
AcDbBlockEnd
  0
BLOCK
  5
1CD
330
1CB
100
AcDbEntity
  8
0
100
AcDbBlockBegin
  2
BLOCK_17
 70
     0
 71
     0
 10
0.0
 20
0.0
 30
0.0
  3
BLOCK_17
  1

  0
SPLINE
  5
1CF
330
1CB
100
AcDbEntity
  8
EBENE_3
 62
   250
100
AcDbSpline
210
0.0
220
0.0
230
1.0
 70
    24
 71
     3
 72
     8
 73
     4
 74
     0
 42
0.0000000001
 43
0.0000000001
 40
0.0
 40
0.0
 40
0.0
 40
0.0
 40
1.0
 40
1.0
 40
1.0
 40
1.0
 10
158.4490031428288
 20
115.0781507031854
 30
0.0
 10
158.4490031428288
 20
116.1530212036694
 30
0.0
 10
158.4490031428288
 20
117.2275471943777
 30
0.0
 10
158.4490031428288
 20
118.3020731850859
 30
0.0
  0
POLYLINE
  5
1D0
330
1CB
100
AcDbEntity
  8
EBENE_3
100
AcDb2dPolyline
 66
     1
 10
0.0
 20
0.0
 30
0.0
  0
VERTEX
  5
1D1
330
1D0
100
AcDbEntity
  8
EBENE_3
100
AcDbVertex
100
AcDb2dVertex
 10
157.6462953652237
 20
118.0678065375445
 30
0.0
  0
VERTEX
  5
1D2
330
1D0
100
AcDbEntity
  8
EBENE_3
100
AcDbVertex
100
AcDb2dVertex
 10
158.4462470646224
 20
119.4541138753483
 30
0.0
  0
VERTEX
  5
1D3
330
1D0
100
AcDbEntity
  8
EBENE_3
100
AcDbVertex
100
AcDb2dVertex
 10
159.2468877835727
 20
118.0678065375445
 30
0.0
  0
VERTEX
  5
1D4
330
1D0
100
AcDbEntity
  8
EBENE_3
100
AcDbVertex
100
AcDb2dVertex
 10
157.6462953652237
 20
118.0678065375445
 30
0.0
  0
SEQEND
  5
1D5
330
1D0
100
AcDbEntity
  8
EBENE_3
  0
INSERT
  5
1D6
330
1CB
100
AcDbEntity
  8
EBENE_3
 62
   250
100
AcDbBlockReference
  2
*U47
 10
0.0
 20
0.0
 30
0.0
1001
ACAD
1002
{
1000
R14_HATCH_DATA
1000
1D6
1011
1.0
1021
0.0
1031
0.0
1011
0.0
1021
1.0
1031
0.0
1011
0.0
1021
0.0
1031
1.0
1040
0.0
1010
0.0
1020
0.0
1030
1.0
1000
SOLID
1070
     1
1070
     1
1071
        1
1071
        1
1071
        3
1070
     1
1040
157.6462953652237
1040
118.0678065375445
1040
158.4462470646224
1040
119.4541138753483
1070
     1
1040
158.4462470646224
1040
119.4541138753483
1040
159.2468877835727
1040
118.0678065375445
1070
     1
1040
159.2468877835727
1040
118.0678065375445
1040
157.6462953652237
1040
118.0678065375445
1071
        0
1070
     2
1070
     1
1071
        0
1002
}
  0
ENDBLK
  5
1CE
330
1CB
100
AcDbEntity
  8
0
100
AcDbBlockEnd
  0
BLOCK
  5
1DA
330
1D8
100
AcDbEntity
  8
0
100
AcDbBlockBegin
  2
BLOCK_18
 70
     0
 71
     0
 10
0.0
 20
0.0
 30
0.0
  3
BLOCK_18
  1

  0
POLYLINE
  5
1DC
330
1D8
100
AcDbEntity
  8
EBENE_3
 62
   250
100
AcDb2dPolyline
 66
     1
 10
0.0
 20
0.0
 30
0.0
  0
VERTEX
  5
1DD
330
1DC
100
AcDbEntity
  8
EBENE_3
 62
   250
100
AcDbVertex
100
AcDb2dVertex
 10
159.2468877835727
 20
119.5288724966961
 30
0.0
  0
VERTEX
  5
1DE
330
1DC
100
AcDbEntity
  8
EBENE_3
 62
   250
100
AcDbVertex
100
AcDb2dVertex
 10
149.9189410941156
 20
119.5288724966961
 30
0.0
  0
SEQEND
  5
1DF
330
1DC
100
AcDbEntity
  8
EBENE_3
  0
ENDBLK
  5
1DB
330
1D8
100
AcDbEntity
  8
0
100
AcDbBlockEnd
  0
BLOCK
  5
1E2
330
1E0
100
AcDbEntity
  8
0
100
AcDbBlockBegin
  2
BLOCK_19
 70
     0
 71
     0
 10
0.0
 20
0.0
 30
0.0
  3
BLOCK_19
  1

  0
POLYLINE
  5
1E4
330
1E0
100
AcDbEntity
  8
EBENE_3
 62
   250
100
AcDb2dPolyline
 66
     1
 10
0.0
 20
0.0
 30
0.0
  0
VERTEX
  5
1E5
330
1E4
100
AcDbEntity
  8
EBENE_3
 62
   250
100
AcDbVertex
100
AcDb2dVertex
 10
159.2317293534377
 20
104.7225313525283
 30
0.0
  0
VERTEX
  5
1E6
330
1E4
100
AcDbEntity
  8
EBENE_3
 62
   250
100
AcDbVertex
100
AcDb2dVertex
 10
149.9189410941156
 20
104.7225313525283
 30
0.0
  0
SEQEND
  5
1E7
330
1E4
100
AcDbEntity
  8
EBENE_3
  0
ENDBLK
  5
1E3
330
1E0
100
AcDbEntity
  8
0
100
AcDbBlockEnd
  0
BLOCK
  5
1EA
330
1E8
100
AcDbEntity
  8
0
100
AcDbBlockBegin
  2
BLOCK_20
 70
     0
 71
     0
 10
0.0
 20
0.0
 30
0.0
  3
BLOCK_20
  1

  0
SPLINE
  5
1EC
330
1E8
100
AcDbEntity
  8
EBENE_3
 62
   250
100
AcDbSpline
210
0.0
220
0.0
230
1.0
 70
    24
 71
     3
 72
     8
 73
     4
 74
     0
 42
0.0000000001
 43
0.0000000001
 40
0.0
 40
0.0
 40
0.0
 40
0.0
 40
1.0
 40
1.0
 40
1.0
 40
1.0
 10
158.4290215758326
 20
105.9310716460213
 30
0.0
 10
158.4290215758326
 20
107.0128323420213
 30
0.0
 10
158.4290215758326
 20
108.0945930380212
 30
0.0
 10
158.4290215758326
 20
109.1763537340212
 30
0.0
  0
POLYLINE
  5
1ED
330
1E8
100
AcDbEntity
  8
EBENE_3
100
AcDb2dPolyline
 66
     1
 10
0.0
 20
0.0
 30
0.0
  0
VERTEX
  5
1EE
330
1ED
100
AcDbEntity
  8
EBENE_3
100
AcDbVertex
100
AcDb2dVertex
 10
159.2317293534377
 20
106.1904875071958
 30
0.0
  0
VERTEX
  5
1EF
330
1ED
100
AcDbEntity
  8
EBENE_3
100
AcDbVertex
100
AcDb2dVertex
 10
158.4310886344873
 20
104.804180169392
 30
0.0
  0
VERTEX
  5
1F0
330
1ED
100
AcDbEntity
  8
EBENE_3
100
AcDbVertex
100
AcDb2dVertex
 10
157.6311369350886
 20
106.1904875071958
 30
0.0
  0
VERTEX
  5
1F1
330
1ED
100
AcDbEntity
  8
EBENE_3
100
AcDbVertex
100
AcDb2dVertex
 10
159.2317293534377
 20
106.1904875071958
 30
0.0
  0
SEQEND
  5
1F2
330
1ED
100
AcDbEntity
  8
EBENE_3
  0
INSERT
  5
1F3
330
1E8
100
AcDbEntity
  8
EBENE_3
 62
   250
100
AcDbBlockReference
  2
*U48
 10
0.0
 20
0.0
 30
0.0
1001
ACAD
1002
{
1000
R14_HATCH_DATA
1000
1F3
1011
1.0
1021
0.0
1031
0.0
1011
0.0
1021
1.0
1031
0.0
1011
0.0
1021
0.0
1031
1.0
1040
0.0
1010
0.0
1020
0.0
1030
1.0
1000
SOLID
1070
     1
1070
     1
1071
        1
1071
        1
1071
        3
1070
     1
1040
159.2317293534377
1040
106.1904875071958
1040
158.4310886344873
1040
104.804180169392
1070
     1
1040
158.4310886344873
1040
104.804180169392
1040
157.6311369350886
1040
106.1904875071958
1070
     1
1040
157.6311369350886
1040
106.1904875071958
1040
159.2317293534377
1040
106.1904875071958
1071
        0
1070
     2
1070
     1
1071
        0
1002
}
  0
ENDBLK
  5
1EB
330
1E8
100
AcDbEntity
  8
0
100
AcDbBlockEnd
  0
BLOCK
  5
215
330
1F5
100
AcDbEntity
  8
0
100
AcDbBlockBegin
  2
*U20
 70
     1
 71
     0
 10
0.0
 20
0.0
 30
0.0
  3
*U20
  1

  0
SOLID
  5
1F6
330
1F5
100
AcDbEntity
  8
EBENE_5
 62
   250
100
AcDbTrace
 10
82.61998992166141
 20
151.6862762439499
 30
0.0
 11
82.61998992166141
 21
152.0390542543652
 31
0.0
 12
89.40476544619116
 22
151.6862762439499
 32
0.0
 13
89.40476544619116
 23
151.6862762439499
 33
0.0
  0
SOLID
  5
1F7
330
1F5
100
AcDbEntity
  8
EBENE_5
 62
   250
100
AcDbTrace
 10
89.40476544619116
 20
151.6862762439499
 30
0.0
 11
82.61998992166141
 21
152.0390542543652
 31
0.0
 12
89.40476544619116
 22
152.0426582977673
 32
0.0
 13
89.40476544619116
 23
152.0426582977673
 33
0.0
  0
SOLID
  5
1F8
330
1F5
100
AcDbEntity
  8
EBENE_5
 62
   250
100
AcDbTrace
 10
89.40476544619116
 20
151.6862762439499
 30
0.0
 11
89.40476544619116
 21
152.0426582977673
 31
0.0
 12
89.71043174476631
 22
151.6419206103162
 32
0.0
 13
89.71043174476631
 23
151.6419206103162
 33
0.0
  0
SOLID
  5
1F9
330
1F5
100
AcDbEntity
  8
EBENE_5
 62
   250
100
AcDbTrace
 10
89.71043174476631
 20
151.6419206103162
 30
0.0
 11
89.40476544619116
 21
152.0426582977673
 31
0.0
 12
89.71043174476631
 22
152.0428206663825
 32
0.0
 13
89.71043174476631
 23
152.0428206663825
 33
0.0
  0
SOLID
  5
1FA
330
1F5
100
AcDbEntity
  8
EBENE_5
 62
   250
100
AcDbTrace
 10
89.71043174476631
 20
151.6419206103162
 30
0.0
 11
89.71043174476631
 21
152.0428206663825
 31
0.0
 12
89.75409835884848
 22
151.3365988215168
 32
0.0
 13
89.75409835884848
 23
151.3365988215168
 33
0.0
  0
SOLID
  5
1FB
330
1F5
100
AcDbEntity
  8
EBENE_5
 62
   250
100
AcDbTrace
 10
89.75409835884848
 20
151.3365988215168
 30
0.0
 11
89.71043174476631
 21
152.0428206663825
 31
0.0
 12
89.75409835884848
 22
152.042843861899
 32
0.0
 13
89.75409835884848
 23
152.042843861899
 33
0.0
  0
SOLID
  5
1FC
330
1F5
100
AcDbEntity
  8
EBENE_5
 62
   250
100
AcDbTrace
 10
89.75409835884848
 20
146.1954794373106
 30
0.0
 11
89.75409835884848
 21
152.042843861899
 31
0.0
 12
89.79854011992617
 22
145.8982536282425
 32
0.0
 13
89.79854011992617
 23
145.8982536282425
 33
0.0
  0
SOLID
  5
1FD
330
1F5
100
AcDbEntity
  8
EBENE_5
 62
   250
100
AcDbTrace
 10
-89.79854011992617
 20
145.8982536282425
 30
0.0
 11
-89.75409835884848
 21
152.042843861899
 31
0.0
 12
-89.79854011992617
 22
152.0360894973299
 32
0.0
 13
-89.79854011992617
 23
152.0360894973299
 33
0.0
210
0.0
220
0.0
230
-1.0
  0
SOLID
  5
1FE
330
1F5
100
AcDbEntity
  8
EBENE_5
 62
   250
100
AcDbTrace
 10
89.79854011992617
 20
145.8982536282425
 30
0.0
 11
89.79854011992617
 21
152.0360894973299
 31
0.0
 12
90.04736230549497
 22
145.8582395811206
 32
0.0
 13
90.04736230549497
 23
145.8582395811206
 33
0.0
  0
SOLID
  5
1FF
330
1F5
100
AcDbEntity
  8
EBENE_5
 62
   250
100
AcDbTrace
 10
-90.04736230549497
 20
145.8582395811206
 30
0.0
 11
-89.79854011992617
 21
152.0360894973299
 31
0.0
 12
-90.04736230549497
 22
151.9982729096554
 32
0.0
 13
-90.04736230549497
 23
151.9982729096554
 33
0.0
210
0.0
220
0.0
230
-1.0
  0
SOLID
  5
200
330
1F5
100
AcDbEntity
  8
EBENE_5
 62
   250
100
AcDbTrace
 10
90.04736230549497
 20
145.8582395811206
 30
0.0
 11
90.04736230549497
 21
151.9982729096554
 31
0.0
 12
90.1034312715058
 22
145.8492229162967
 32
0.0
 13
90.1034312715058
 23
145.8492229162967
 33
0.0
  0
SOLID
  5
201
330
1F5
100
AcDbEntity
  8
EBENE_5
 62
   250
100
AcDbTrace
 10
-90.1034312715058
 20
145.8492229162967
 30
0.0
 11
-90.04736230549497
 21
151.9982729096554
 31
0.0
 12
-90.1034312715058
 22
151.6862762439499
 32
0.0
 13
-90.1034312715058
 23
151.6862762439499
 33
0.0
210
0.0
220
0.0
230
-1.0
  0
SOLID
  5
202
330
1F5
100
AcDbEntity
  8
EBENE_5
 62
   250
100
AcDbTrace
 10
90.1034312715058
 20
145.8492229162967
 30
0.0
 11
90.1034312715058
 21
151.6862762439499
 31
0.0
 12
90.10756538881535
 22
145.8485580930839
 32
0.0
 13
90.10756538881535
 23
145.8485580930839
 33
0.0
  0
SOLID
  5
203
330
1F5
100
AcDbEntity
  8
EBENE_5
 62
   250
100
AcDbTrace
 10
-90.10756538881535
 20
145.8485580930839
 30
0.0
 11
-90.1034312715058
 21
151.6862762439499
 31
0.0
 12
-90.10756538881535
 22
146.9447616989203
 32
0.0
 13
-90.10756538881535
 23
146.9447616989203
 33
0.0
210
0.0
220
0.0
230
-1.0
  0
SOLID
  5
204
330
1F5
100
AcDbEntity
  8
EBENE_5
 62
   250
100
AcDbTrace
 10
90.10756538881535
 20
145.8485580930839
 30
0.0
 11
90.10756538881535
 21
146.9447616989203
 31
0.0
 12
90.10790989859115
 22
145.848535777724
 32
0.0
 13
90.10790989859115
 23
145.848535777724
 33
0.0
  0
SOLID
  5
205
330
1F5
100
AcDbEntity
  8
EBENE_5
 62
   250
100
AcDbTrace
 10
-90.10790989859115
 20
145.848535777724
 30
0.0
 11
-90.10756538881535
 21
146.9447616989203
 31
0.0
 12
-90.10790989859115
 22
146.5496354868291
 32
0.0
 13
-90.10790989859115
 23
146.5496354868291
 33
0.0
210
0.0
220
0.0
230
-1.0
  0
SOLID
  5
206
330
1F5
100
AcDbEntity
  8
EBENE_5
 62
   250
100
AcDbTrace
 10
90.10790989859115
 20
145.848535777724
 30
0.0
 11
90.10790989859115
 21
146.5496354868291
 31
0.0
 12
90.15213634105898
 22
145.8456710434053
 32
0.0
 13
90.15213634105898
 23
145.8456710434053
 33
0.0
  0
SOLID
  5
207
330
1F5
100
AcDbEntity
  8
EBENE_5
 62
   250
100
AcDbTrace
 10
-90.15213634105898
 20
145.8456710434053
 30
0.0
 11
-90.10790989859115
 21
146.5496354868291
 31
0.0
 12
-90.15213634105898
 22
146.2530986973125
 32
0.0
 13
-90.15213634105898
 23
146.2530986973125
 33
0.0
210
0.0
220
0.0
230
-1.0
  0
SOLID
  5
208
330
1F5
100
AcDbEntity
  8
EBENE_5
 62
   250
100
AcDbTrace
 10
90.15213634105898
 20
145.8456710434053
 30
0.0
 11
90.15213634105898
 21
146.2530986973125
 31
0.0
 12
90.45965437967904
 22
145.8257517953331
 32
0.0
 13
90.45965437967904
 23
145.8257517953331
 33
0.0
  0
SOLID
  5
209
330
1F5
100
AcDbEntity
  8
EBENE_5
 62
   250
100
AcDbTrace
 10
-90.45965437967904
 20
145.8257517953331
 30
0.0
 11
-90.15213634105898
 21
146.2530986973125
 31
0.0
 12
-90.45965437967904
 22
146.2009915937234
 32
0.0
 13
-90.45965437967904
 23
146.2009915937234
 33
0.0
210
0.0
220
0.0
230
-1.0
  0
SOLID
  5
20A
330
1F5
100
AcDbEntity
  8
EBENE_5
 62
   250
100
AcDbTrace
 10
90.45965437967904
 20
145.8257517953331
 30
0.0
 11
90.45965437967904
 21
146.2009915937234
 31
0.0
 12
95.53256082827762
 22
145.4971581217718
 32
0.0
 13
95.53256082827762
 23
145.4971581217718
 33
0.0
  0
SOLID
  5
20B
330
1F5
100
AcDbEntity
  8
EBENE_5
 62
   250
100
AcDbTrace
 10
95.53256082827762
 20
145.4971581217718
 30
0.0
 11
90.45965437967904
 21
146.2009915937234
 31
0.0
 12
95.53256082827762
 22
145.8714650647101
 32
0.0
 13
95.53256082827762
 23
145.8714650647101
 33
0.0
  0
SOLID
  5
20C
330
1F5
100
AcDbEntity
  8
EBENE_5
 62
   250
100
AcDbTrace
 10
95.53256082827762
 20
145.4971581217718
 30
0.0
 11
95.53256082827762
 21
145.8714650647101
 31
0.0
 12
95.82362852510342
 22
145.4200740594374
 32
0.0
 13
95.82362852510342
 23
145.4200740594374
 33
0.0
  0
SOLID
  5
20D
330
1F5
100
AcDbEntity
  8
EBENE_5
 62
   250
100
AcDbTrace
 10
-95.82362852510342
 20
145.4200740594374
 30
0.0
 11
-95.53256082827762
 21
145.8714650647101
 31
0.0
 12
-95.82362852510342
 22
145.8525578507067
 32
0.0
 13
-95.82362852510342
 23
145.8525578507067
 33
0.0
210
0.0
220
0.0
230
-1.0
  0
SOLID
  5
20E
330
1F5
100
AcDbEntity
  8
EBENE_5
 62
   250
100
AcDbTrace
 10
95.82362852510342
 20
145.4200740594374
 30
0.0
 11
95.82362852510342
 21
145.8525578507067
 31
0.0
 12
95.88912844622665
 22
145.1884773626584
 32
0.0
 13
95.88912844622665
 23
145.1884773626584
 33
0.0
  0
SOLID
  5
20F
330
1F5
100
AcDbEntity
  8
EBENE_5
 62
   250
100
AcDbTrace
 10
-95.88912844622665
 20
145.1884773626584
 30
0.0
 11
-95.82362852510342
 21
145.8525578507067
 31
0.0
 12
-95.88912844622665
 22
145.8483030981547
 32
0.0
 13
-95.88912844622665
 23
145.8483030981547
 33
0.0
210
0.0
220
0.0
230
-1.0
  0
SOLID
  5
210
330
1F5
100
AcDbEntity
  8
EBENE_5
 62
   250
100
AcDbTrace
 10
95.88912844622665
 20
145.1884773626584
 30
0.0
 11
95.88912844622665
 21
145.8483030981547
 31
0.0
 12
95.89050648532984
 22
144.9240661097349
 32
0.0
 13
95.89050648532984
 23
144.9240661097349
 33
0.0
  0
SOLID
  5
211
330
1F5
100
AcDbEntity
  8
EBENE_5
 62
   250
100
AcDbTrace
 10
-95.89050648532984
 20
144.9240661097349
 30
0.0
 11
-95.88912844622665
 21
145.8483030981547
 31
0.0
 12
-95.89050648532984
 22
145.8482135833081
 32
0.0
 13
-95.89050648532984
 23
145.8482135833081
 33
0.0
210
0.0
220
0.0
230
-1.0
  0
SOLID
  5
212
330
1F5
100
AcDbEntity
  8
EBENE_5
 62
   250
100
AcDbTrace
 10
-95.89050648532984
 20
144.9240661097349
 30
0.0
 11
-95.89050648532984
 21
145.8482135833081
 31
0.0
 12
-96.24328449574512
 22
144.9240661097349
 32
0.0
 13
-96.24328449574512
 23
144.9240661097349
 33
0.0
210
0.0
220
0.0
230
-1.0
  0
SOLID
  5
213
330
1F5
100
AcDbEntity
  8
EBENE_5
 62
   250
100
AcDbTrace
 10
-96.24328449574512
 20
144.9240661097349
 30
0.0
 11
-95.89050648532984
 21
145.8482135833081
 31
0.0
 12
-96.24328449574512
 22
145.327814442213
 32
0.0
 13
-96.24328449574512
 23
145.327814442213
 33
0.0
210
0.0
220
0.0
230
-1.0
  0
SOLID
  5
214
330
1F5
100
AcDbEntity
  8
EBENE_5
 62
   250
100
AcDbTrace
 10
-96.24328449574512
 20
144.9240661097349
 30
0.0
 11
-96.24328449574512
 21
145.327814442213
 31
0.0
 12
-96.24397351529672
 22
145.3267980376406
 32
0.0
 13
-96.24397351529672
 23
145.3267980376406
 33
0.0
210
0.0
220
0.0
230
-1.0
  0
ENDBLK
  5
216
330
1F5
100
AcDbEntity
  8
0
100
AcDbBlockEnd
  0
BLOCK
  5
25A
330
217
100
AcDbEntity
  8
0
100
AcDbBlockBegin
  2
*U21
 70
     1
 71
     0
 10
0.0
 20
0.0
 30
0.0
  3
*U21
  1

  0
SOLID
  5
218
330
217
100
AcDbEntity
  8
EBENE_5
 62
   250
100
AcDbTrace
 10
-99.75073852312592
 20
144.9240661097349
 30
0.0
 11
-99.75073852312592
 21
145.3267980376406
 31
0.0
 12
-100.1028275139896
 22
144.9240661097349
 32
0.0
 13
-100.1028275139896
 23
144.9240661097349
 33
0.0
210
0.0
220
0.0
230
-1.0
  0
SOLID
  5
219
330
217
100
AcDbEntity
  8
EBENE_5
 62
   250
100
AcDbTrace
 10
100.1028275139896
 20
144.9240661097349
 30
0.0
 11
99.75073852312592
 21
145.3267980376406
 31
0.0
 12
100.1028275139896
 22
145.8430459366711
 32
0.0
 13
100.1028275139896
 23
145.8430459366711
 33
0.0
  0
SOLID
  5
21A
330
217
100
AcDbEntity
  8
EBENE_5
 62
   250
100
AcDbTrace
 10
-100.1028275139896
 20
144.9240661097349
 30
0.0
 11
-100.1028275139896
 21
145.8430459366711
 31
0.0
 12
-100.1090286899539
 22
144.9240661097349
 32
0.0
 13
-100.1090286899539
 23
144.9240661097349
 33
0.0
210
0.0
220
0.0
230
-1.0
  0
SOLID
  5
21B
330
217
100
AcDbEntity
  8
EBENE_5
 62
   250
100
AcDbTrace
 10
100.1090286899539
 20
144.9240661097349
 30
0.0
 11
100.1028275139896
 21
145.8430459366711
 31
0.0
 12
100.1090286899539
 22
145.8434484725943
 32
0.0
 13
100.1090286899539
 23
145.8434484725943
 33
0.0
  0
SOLID
  5
21C
330
217
100
AcDbEntity
  8
EBENE_5
 62
   250
100
AcDbTrace
 10
-100.1090286899539
 20
144.9240661097349
 30
0.0
 11
-100.1090286899539
 21
145.8434484725943
 31
0.0
 12
-100.1100622192813
 22
145.1884773626584
 32
0.0
 13
-100.1100622192813
 23
145.1884773626584
 33
0.0
210
0.0
220
0.0
230
-1.0
  0
SOLID
  5
21D
330
217
100
AcDbEntity
  8
EBENE_5
 62
   250
100
AcDbTrace
 10
100.1100622192813
 20
145.1884773626584
 30
0.0
 11
100.1090286899539
 21
145.8434484725943
 31
0.0
 12
100.1100622192813
 22
145.8435155619148
 32
0.0
 13
100.1100622192813
 23
145.8435155619148
 33
0.0
  0
SOLID
  5
21E
330
217
100
AcDbEntity
  8
EBENE_5
 62
   250
100
AcDbTrace
 10
-100.1100622192813
 20
145.1884773626584
 30
0.0
 11
-100.1100622192813
 21
145.8435155619148
 31
0.0
 12
-100.1236542065295
 22
145.337515521447
 32
0.0
 13
-100.1236542065295
 23
145.337515521447
 33
0.0
210
0.0
220
0.0
230
-1.0
  0
SOLID
  5
21F
330
217
100
AcDbEntity
  8
EBENE_5
 62
   250
100
AcDbTrace
 10
100.1236542065295
 20
145.337515521447
 30
0.0
 11
100.1100622192813
 21
145.8435155619148
 31
0.0
 12
100.1236542065295
 22
145.8443978563644
 32
0.0
 13
100.1236542065295
 23
145.8443978563644
 33
0.0
  0
SOLID
  5
220
330
217
100
AcDbEntity
  8
EBENE_5
 62
   250
100
AcDbTrace
 10
-100.1236542065295
 20
145.337515521447
 30
0.0
 11
-100.1236542065295
 21
145.8443978563644
 31
0.0
 12
-100.1787488558307
 22
145.4250263874645
 32
0.0
 13
-100.1787488558307
 23
145.4250263874645
 33
0.0
210
0.0
220
0.0
230
-1.0
  0
SOLID
  5
221
330
217
100
AcDbEntity
  8
EBENE_5
 62
   250
100
AcDbTrace
 10
100.1787488558307
 20
145.4250263874645
 30
0.0
 11
100.1236542065295
 21
145.8443978563644
 31
0.0
 12
100.1787488558307
 22
145.8479742063412
 32
0.0
 13
100.1787488558307
 23
145.8479742063412
 33
0.0
  0
SOLID
  5
222
330
217
100
AcDbEntity
  8
EBENE_5
 62
   250
100
AcDbTrace
 10
-100.1787488558307
 20
145.4250263874645
 30
0.0
 11
-100.1787488558307
 21
145.8479742063412
 31
0.0
 12
-100.2968241985196
 22
145.470097955476
 32
0.0
 13
-100.2968241985196
 23
145.470097955476
 33
0.0
210
0.0
220
0.0
230
-1.0
  0
SOLID
  5
223
330
217
100
AcDbEntity
  8
EBENE_5
 62
   250
100
AcDbTrace
 10
100.2968241985196
 20
145.470097955476
 30
0.0
 11
100.1787488558307
 21
145.8479742063412
 31
0.0
 12
100.2968241985196
 22
145.8556388117874
 32
0.0
 13
100.2968241985196
 23
145.8556388117874
 33
0.0
  0
SOLID
  5
224
330
217
100
AcDbEntity
  8
EBENE_5
 62
   250
100
AcDbTrace
 10
-100.2968241985196
 20
145.470097955476
 30
0.0
 11
-100.2968241985196
 21
145.8556388117874
 31
0.0
 12
-100.499358265931
 22
145.491818220247
 32
0.0
 13
-100.499358265931
 23
145.491818220247
 33
0.0
210
0.0
220
0.0
230
-1.0
  0
SOLID
  5
225
330
217
100
AcDbEntity
  8
EBENE_5
 62
   250
100
AcDbTrace
 10
100.499358265931
 20
145.491818220247
 30
0.0
 11
100.2968241985196
 21
145.8556388117874
 31
0.0
 12
100.499358265931
 22
145.868785872645
 32
0.0
 13
100.499358265931
 23
145.868785872645
 33
0.0
  0
SOLID
  5
226
330
217
100
AcDbEntity
  8
EBENE_5
 62
   250
100
AcDbTrace
 10
100.499358265931
 20
145.491818220247
 30
0.0
 11
100.499358265931
 21
145.868785872645
 31
0.0
 12
105.5374692271742
 22
145.8197397446607
 32
0.0
 13
105.5374692271742
 23
145.8197397446607
 33
0.0
  0
SOLID
  5
227
330
217
100
AcDbEntity
  8
EBENE_5
 62
   250
100
AcDbTrace
 10
105.5374692271742
 20
145.8197397446607
 30
0.0
 11
100.499358265931
 21
145.868785872645
 31
0.0
 12
105.5374692271742
 22
146.1958239470864
 32
0.0
 13
105.5374692271742
 23
146.1958239470864
 33
0.0
  0
SOLID
  5
228
330
217
100
AcDbEntity
  8
EBENE_5
 62
   250
100
AcDbTrace
 10
-105.5374692271742
 20
145.8197397446607
 30
0.0
 11
-105.5374692271742
 21
146.1958239470864
 31
0.0
 12
-105.7411283343222
 22
145.8329955473594
 32
0.0
 13
-105.7411283343222
 23
145.8329955473594
 33
0.0
210
0.0
220
0.0
230
-1.0
  0
SOLID
  5
229
330
217
100
AcDbEntity
  8
EBENE_5
 62
   250
100
AcDbTrace
 10
105.7411283343222
 20
145.8329955473594
 30
0.0
 11
105.5374692271742
 21
146.1958239470864
 31
0.0
 12
105.7411283343222
 22
146.21127844031
 32
0.0
 13
105.7411283343222
 23
146.21127844031
 33
0.0
  0
SOLID
  5
22A
330
217
100
AcDbEntity
  8
EBENE_5
 62
   250
100
AcDbTrace
 10
-105.7411283343222
 20
145.8329955473594
 30
0.0
 11
-105.7411283343222
 21
146.21127844031
 31
0.0
 12
-105.8458916039557
 22
145.8398143989776
 32
0.0
 13
-105.8458916039557
 23
145.8398143989776
 33
0.0
210
0.0
220
0.0
230
-1.0
  0
SOLID
  5
22B
330
217
100
AcDbEntity
  8
EBENE_5
 62
   250
100
AcDbTrace
 10
105.8458916039557
 20
145.8398143989776
 30
0.0
 11
105.7411283343222
 21
146.21127844031
 31
0.0
 12
105.8458916039557
 22
146.2494382809447
 32
0.0
 13
105.8458916039557
 23
146.2494382809447
 33
0.0
  0
SOLID
  5
22C
330
217
100
AcDbEntity
  8
EBENE_5
 62
   250
100
AcDbTrace
 10
-105.8458916039557
 20
145.8398143989776
 30
0.0
 11
-105.8458916039557
 21
146.2494382809447
 31
0.0
 12
-105.8846381878023
 22
145.842336343996
 32
0.0
 13
-105.8846381878023
 23
145.842336343996
 33
0.0
210
0.0
220
0.0
230
-1.0
  0
SOLID
  5
22D
330
217
100
AcDbEntity
  8
EBENE_5
 62
   250
100
AcDbTrace
 10
105.8846381878023
 20
145.842336343996
 30
0.0
 11
105.8458916039557
 21
146.2494382809447
 31
0.0
 12
105.8846381878023
 22
146.349157712142
 32
0.0
 13
105.8846381878023
 23
146.349157712142
 33
0.0
  0
SOLID
  5
22E
330
217
100
AcDbEntity
  8
EBENE_5
 62
   250
100
AcDbTrace
 10
-105.8846381878023
 20
145.842336343996
 30
0.0
 11
-105.8846381878023
 21
146.349157712142
 31
0.0
 12
-105.8902472375894
 22
145.8427014268953
 32
0.0
 13
-105.8902472375894
 23
145.8427014268953
 33
0.0
210
0.0
220
0.0
230
-1.0
  0
SOLID
  5
22F
330
217
100
AcDbEntity
  8
EBENE_5
 62
   250
100
AcDbTrace
 10
105.8902472375894
 20
145.8427014268953
 30
0.0
 11
105.8846381878023
 21
146.349157712142
 31
0.0
 12
105.8902472375894
 22
146.5492909770533
 32
0.0
 13
105.8902472375894
 23
146.5492909770533
 33
0.0
  0
SOLID
  5
230
330
217
100
AcDbEntity
  8
EBENE_5
 62
   250
100
AcDbTrace
 10
-105.8902472375894
 20
145.8427014268953
 30
0.0
 11
-105.8902472375894
 21
146.5492909770533
 31
0.0
 12
-105.890936257141
 22
145.8427516928964
 32
0.0
 13
-105.890936257141
 23
145.8427516928964
 33
0.0
210
0.0
220
0.0
230
-1.0
  0
SOLID
  5
231
330
217
100
AcDbEntity
  8
EBENE_5
 62
   250
100
AcDbTrace
 10
105.890936257141
 20
145.8427516928964
 30
0.0
 11
105.8902472375894
 21
146.5492909770533
 31
0.0
 12
105.890936257141
 22
151.6831756559678
 32
0.0
 13
105.890936257141
 23
151.6831756559678
 33
0.0
  0
SOLID
  5
232
330
217
100
AcDbEntity
  8
EBENE_5
 62
   250
100
AcDbTrace
 10
-105.890936257141
 20
145.8427516928964
 30
0.0
 11
-105.890936257141
 21
151.6831756559678
 31
0.0
 12
-105.8964484135538
 22
145.8431538209053
 32
0.0
 13
-105.8964484135538
 23
145.8431538209053
 33
0.0
210
0.0
220
0.0
230
-1.0
  0
SOLID
  5
233
330
217
100
AcDbEntity
  8
EBENE_5
 62
   250
100
AcDbTrace
 10
105.8964484135538
 20
145.8431538209053
 30
0.0
 11
105.890936257141
 21
151.6831756559678
 31
0.0
 12
105.8964484135538
 22
151.8875237826674
 32
0.0
 13
105.8964484135538
 23
151.8875237826674
 33
0.0
  0
SOLID
  5
234
330
217
100
AcDbEntity
  8
EBENE_5
 62
   250
100
AcDbTrace
 10
-105.8964484135538
 20
145.8431538209053
 30
0.0
 11
-105.8964484135538
 21
151.8875237826674
 31
0.0
 12
-105.935033508443
 22
145.8459687169672
 32
0.0
 13
-105.935033508443
 23
145.8459687169672
 33
0.0
210
0.0
220
0.0
230
-1.0
  0
SOLID
  5
235
330
217
100
AcDbEntity
  8
EBENE_5
 62
   250
100
AcDbTrace
 10
105.935033508443
 20
145.8459687169672
 30
0.0
 11
105.8964484135538
 21
151.8875237826674
 31
0.0
 12
105.935033508443
 22
151.9924593071888
 32
0.0
 13
105.935033508443
 23
151.9924593071888
 33
0.0
  0
SOLID
  5
236
330
217
100
AcDbEntity
  8
EBENE_5
 62
   250
100
AcDbTrace
 10
-105.935033508443
 20
145.8459687169672
 30
0.0
 11
-105.935033508443
 21
151.9924593071888
 31
0.0
 12
-106.039764480285
 22
145.8536091491354
 32
0.0
 13
-106.039764480285
 23
145.8536091491354
 33
0.0
210
0.0
220
0.0
230
-1.0
  0
SOLID
  5
237
330
217
100
AcDbEntity
  8
EBENE_5
 62
   250
100
AcDbTrace
 10
106.039764480285
 20
145.8536091491354
 30
0.0
 11
105.935033508443
 21
151.9924593071888
 31
0.0
 12
106.039764480285
 22
152.0311197635914
 32
0.0
 13
106.039764480285
 23
152.0311197635914
 33
0.0
  0
SOLID
  5
238
330
217
100
AcDbEntity
  8
EBENE_5
 62
   250
100
AcDbTrace
 10
-106.039764480285
 20
145.8536091491354
 30
0.0
 11
-106.039764480285
 21
152.0311197635914
 31
0.0
 12
-106.0943046841657
 22
145.8575880172854
 32
0.0
 13
-106.0943046841657
 23
145.8575880172854
 33
0.0
210
0.0
220
0.0
230
-1.0
  0
SOLID
  5
239
330
217
100
AcDbEntity
  8
EBENE_5
 62
   250
100
AcDbTrace
 10
106.0943046841657
 20
145.8575880172854
 30
0.0
 11
106.039764480285
 21
152.0311197635914
 31
0.0
 12
106.0943046841657
 22
152.0325967021784
 32
0.0
 13
106.0943046841657
 23
152.0325967021784
 33
0.0
  0
SOLID
  5
23A
330
217
100
AcDbEntity
  8
EBENE_5
 62
   250
100
AcDbTrace
 10
-106.0943046841657
 20
145.8575880172854
 30
0.0
 11
-106.0943046841657
 21
152.0325967021784
 31
0.0
 12
-106.1992725064786
 22
145.8951315083993
 32
0.0
 13
-106.1992725064786
 23
145.8951315083993
 33
0.0
210
0.0
220
0.0
230
-1.0
  0
SOLID
  5
23B
330
217
100
AcDbEntity
  8
EBENE_5
 62
   250
100
AcDbTrace
 10
106.1992725064786
 20
145.8951315083993
 30
0.0
 11
106.0943046841657
 21
152.0325967021784
 31
0.0
 12
106.1992725064786
 22
152.0354392113024
 32
0.0
 13
106.1992725064786
 23
152.0354392113024
 33
0.0
  0
SOLID
  5
23C
330
217
100
AcDbEntity
  8
EBENE_5
 62
   250
100
AcDbTrace
 10
-106.1992725064786
 20
145.8951315083993
 30
0.0
 11
-106.1992725064786
 21
152.0354392113024
 31
0.0
 12
-106.2380944518386
 22
145.9946544613651
 32
0.0
 13
-106.2380944518386
 23
145.9946544613651
 33
0.0
210
0.0
220
0.0
230
-1.0
  0
SOLID
  5
23D
330
217
100
AcDbEntity
  8
EBENE_5
 62
   250
100
AcDbTrace
 10
106.2380944518386
 20
145.9946544613651
 30
0.0
 11
106.1992725064786
 21
152.0354392113024
 31
0.0
 12
106.2380944518386
 22
152.0364905023692
 32
0.0
 13
106.2380944518386
 23
152.0364905023692
 33
0.0
  0
SOLID
  5
23E
330
217
100
AcDbEntity
  8
EBENE_5
 62
   250
100
AcDbTrace
 10
-106.2380944518386
 20
145.9946544613651
 30
0.0
 11
-106.2380944518386
 21
152.0364905023692
 31
0.0
 12
-106.2437142675563
 22
146.1954794373106
 32
0.0
 13
-106.2437142675563
 23
146.1954794373106
 33
0.0
210
0.0
220
0.0
230
-1.0
  0
SOLID
  5
23F
330
217
100
AcDbEntity
  8
EBENE_5
 62
   250
100
AcDbTrace
 10
106.2437142675563
 20
146.1954794373106
 30
0.0
 11
106.2380944518386
 21
152.0364905023692
 31
0.0
 12
106.2437142675563
 22
152.0366426859347
 32
0.0
 13
106.2437142675563
 23
152.0366426859347
 33
0.0
  0
SOLID
  5
240
330
217
100
AcDbEntity
  8
EBENE_5
 62
   250
100
AcDbTrace
 10
-106.2437142675563
 20
151.3303976455525
 30
0.0
 11
-106.2437142675563
 21
152.0366426859347
 31
0.0
 12
-106.2491833602471
 22
151.5343474328239
 32
0.0
 13
-106.2491833602471
 23
151.5343474328239
 33
0.0
210
0.0
220
0.0
230
-1.0
  0
SOLID
  5
241
330
217
100
AcDbEntity
  8
EBENE_5
 62
   250
100
AcDbTrace
 10
106.2491833602471
 20
151.5343474328239
 30
0.0
 11
106.2437142675563
 21
152.0366426859347
 31
0.0
 12
106.2491833602471
 22
152.0366631375122
 32
0.0
 13
106.2491833602471
 23
152.0366631375122
 33
0.0
  0
SOLID
  5
242
330
217
100
AcDbEntity
  8
EBENE_5
 62
   250
100
AcDbTrace
 10
-106.2491833602471
 20
151.5343474328239
 30
0.0
 11
-106.2491833602471
 21
152.0366631375122
 31
0.0
 12
-106.2874670090824
 22
151.6390784046659
 32
0.0
 13
-106.2874670090824
 23
151.6390784046659
 33
0.0
210
0.0
220
0.0
230
-1.0
  0
SOLID
  5
243
330
217
100
AcDbEntity
  8
EBENE_5
 62
   250
100
AcDbTrace
 10
106.2874670090824
 20
151.6390784046659
 30
0.0
 11
106.2491833602471
 21
152.0366631375122
 31
0.0
 12
106.2874670090824
 22
152.0368062985549
 32
0.0
 13
106.2874670090824
 23
152.0368062985549
 33
0.0
  0
SOLID
  5
244
330
217
100
AcDbEntity
  8
EBENE_5
 62
   250
100
AcDbTrace
 10
-106.2874670090824
 20
151.6390784046659
 30
0.0
 11
-106.2874670090824
 21
152.0368062985549
 31
0.0
 12
-106.3913797702069
 22
151.6776634995551
 32
0.0
 13
-106.3913797702069
 23
151.6776634995551
 33
0.0
210
0.0
220
0.0
230
-1.0
  0
SOLID
  5
245
330
217
100
AcDbEntity
  8
EBENE_5
 62
   250
100
AcDbTrace
 10
106.3913797702069
 20
151.6776634995551
 30
0.0
 11
106.2874670090824
 21
152.0368062985549
 31
0.0
 12
106.3913797702069
 22
152.0371948785279
 32
0.0
 13
106.3913797702069
 23
152.0371948785279
 33
0.0
  0
SOLID
  5
246
330
217
100
AcDbEntity
  8
EBENE_5
 62
   250
100
AcDbTrace
 10
-106.3913797702069
 20
151.6776634995551
 30
0.0
 11
-106.3913797702069
 21
152.0371948785279
 31
0.0
 12
-106.5937361997652
 22
151.6831756559678
 32
0.0
 13
-106.5937361997652
 23
151.6831756559678
 33
0.0
210
0.0
220
0.0
230
-1.0
  0
SOLID
  5
247
330
217
100
AcDbEntity
  8
EBENE_5
 62
   250
100
AcDbTrace
 10
106.5937361997652
 20
151.6831756559678
 30
0.0
 11
106.3913797702069
 21
152.0371948785279
 31
0.0
 12
106.5937361997652
 22
152.0379515868965
 32
0.0
 13
106.5937361997652
 23
152.0379515868965
 33
0.0
  0
SOLID
  5
248
330
217
100
AcDbEntity
  8
EBENE_5
 62
   250
100
AcDbTrace
 10
106.5937361997652
 20
151.6831756559678
 30
0.0
 11
106.5937361997652
 21
152.0379515868965
 31
0.0
 12
106.9988796961015
 22
151.6831756559678
 32
0.0
 13
106.9988796961015
 23
151.6831756559678
 33
0.0
  0
SOLID
  5
249
330
217
100
AcDbEntity
  8
EBENE_5
 62
   250
100
AcDbTrace
 10
106.9988796961015
 20
151.6831756559678
 30
0.0
 11
106.5937361997652
 21
152.0379515868965
 31
0.0
 12
106.9988796961015
 22
152.0394666139941
 32
0.0
 13
106.9988796961015
 23
152.0394666139941
 33
0.0
  0
SOLID
  5
24A
330
217
100
AcDbEntity
  8
EBENE_5
 62
   250
100
AcDbTrace
 10
106.9988796961015
 20
151.6831756559678
 30
0.0
 11
106.9988796961015
 21
152.0394666139941
 31
0.0
 12
107.2014352953591
 22
151.6776581165915
 32
0.0
 13
107.2014352953591
 23
151.6776581165915
 33
0.0
  0
SOLID
  5
24B
330
217
100
AcDbEntity
  8
EBENE_5
 62
   250
100
AcDbTrace
 10
107.2014352953591
 20
151.6776581165915
 30
0.0
 11
106.9988796961015
 21
152.0394666139941
 31
0.0
 12
107.2014352953591
 22
152.0402240671542
 32
0.0
 13
107.2014352953591
 23
152.0402240671542
 33
0.0
  0
SOLID
  5
24C
330
217
100
AcDbEntity
  8
EBENE_5
 62
   250
100
AcDbTrace
 10
107.2014352953591
 20
151.6776581165915
 30
0.0
 11
107.2014352953591
 21
152.0402240671542
 31
0.0
 12
107.305450332825
 22
151.6390353409572
 32
0.0
 13
107.305450332825
 23
151.6390353409572
 33
0.0
  0
SOLID
  5
24D
330
217
100
AcDbEntity
  8
EBENE_5
 62
   250
100
AcDbTrace
 10
107.305450332825
 20
151.6390353409572
 30
0.0
 11
107.2014352953591
 21
152.0402240671542
 31
0.0
 12
107.305450332825
 22
152.0406130295879
 32
0.0
 13
107.305450332825
 23
152.0406130295879
 33
0.0
  0
SOLID
  5
24E
330
217
100
AcDbEntity
  8
EBENE_5
 62
   250
100
AcDbTrace
 10
107.305450332825
 20
151.6390353409572
 30
0.0
 11
107.305450332825
 21
152.0406130295879
 31
0.0
 12
107.3437716624253
 22
151.5342020928069
 32
0.0
 13
107.3437716624253
 23
151.5342020928069
 33
0.0
  0
SOLID
  5
24F
330
217
100
AcDbEntity
  8
EBENE_5
 62
   250
100
AcDbTrace
 10
107.3437716624253
 20
151.5342020928069
 30
0.0
 11
107.305450332825
 21
152.0406130295879
 31
0.0
 12
107.3437716624253
 22
152.0407563315372
 32
0.0
 13
107.3437716624253
 23
152.0407563315372
 33
0.0
  0
SOLID
  5
250
330
217
100
AcDbEntity
  8
EBENE_5
 62
   250
100
AcDbTrace
 10
107.3437716624253
 20
151.5342020928069
 30
0.0
 11
107.3437716624253
 21
152.0407563315372
 31
0.0
 12
107.3492461380862
 22
151.3300531357767
 32
0.0
 13
107.3492461380862
 23
151.3300531357767
 33
0.0
  0
SOLID
  5
251
330
217
100
AcDbEntity
  8
EBENE_5
 62
   250
100
AcDbTrace
 10
107.3492461380862
 20
151.3300531357767
 30
0.0
 11
107.3437716624253
 21
152.0407563315372
 31
0.0
 12
107.3492461380862
 22
152.0407768032442
 32
0.0
 13
107.3492461380862
 23
152.0407768032442
 33
0.0
  0
SOLID
  5
252
330
217
100
AcDbEntity
  8
EBENE_5
 62
   250
100
AcDbTrace
 10
-107.3492461380862
 20
144.6699901500852
 30
0.0
 11
-107.3492461380862
 21
152.0407768032442
 31
0.0
 12
-107.5533950950717
 22
144.6699901500852
 32
0.0
 13
-107.5533950950717
 23
144.6699901500852
 33
0.0
210
0.0
220
0.0
230
-1.0
  0
SOLID
  5
253
330
217
100
AcDbEntity
  8
EBENE_5
 62
   250
100
AcDbTrace
 10
-107.5533950950717
 20
144.6699901500852
 30
0.0
 11
-107.3492461380862
 21
152.0407768032442
 31
0.0
 12
-107.5533950950717
 22
152.035189285318
 32
0.0
 13
-107.5533950950717
 23
152.035189285318
 33
0.0
210
0.0
220
0.0
230
-1.0
  0
SOLID
  5
254
330
217
100
AcDbEntity
  8
EBENE_5
 62
   250
100
AcDbTrace
 10
-107.5533950950717
 20
144.6699901500852
 30
0.0
 11
-107.5533950950717
 21
152.035189285318
 31
0.0
 12
-107.6582283432534
 22
144.6699901500852
 32
0.0
 13
-107.6582283432534
 23
144.6699901500852
 33
0.0
210
0.0
220
0.0
230
-1.0
  0
SOLID
  5
255
330
217
100
AcDbEntity
  8
EBENE_5
 62
   250
100
AcDbTrace
 10
-107.6582283432534
 20
144.6699901500852
 30
0.0
 11
-107.5533950950717
 21
152.035189285318
 31
0.0
 12
-107.6582283432534
 22
151.9960766598347
 32
0.0
 13
-107.6582283432534
 23
151.9960766598347
 33
0.0
210
0.0
220
0.0
230
-1.0
  0
SOLID
  5
256
330
217
100
AcDbEntity
  8
EBENE_5
 62
   250
100
AcDbTrace
 10
-107.6582283432534
 20
144.6699901500852
 30
0.0
 11
-107.6582283432534
 21
151.9960766598347
 31
0.0
 12
-107.6968511188993
 22
144.6699901500852
 32
0.0
 13
-107.6968511188993
 23
144.6699901500852
 33
0.0
210
0.0
220
0.0
230
-1.0
  0
SOLID
  5
257
330
217
100
AcDbEntity
  8
EBENE_5
 62
   250
100
AcDbTrace
 10
-107.6968511188993
 20
144.6699901500852
 30
0.0
 11
-107.6582283432534
 21
151.9960766598347
 31
0.0
 12
-107.6968511188993
 22
151.889913819237
 32
0.0
 13
-107.6968511188993
 23
151.889913819237
 33
0.0
210
0.0
220
0.0
230
-1.0
  0
SOLID
  5
258
330
217
100
AcDbEntity
  8
EBENE_5
 62
   250
100
AcDbTrace
 10
-107.6968511188993
 20
144.6699901500852
 30
0.0
 11
-107.6968511188993
 21
151.889913819237
 31
0.0
 12
-107.7023686582773
 22
144.6699901500852
 32
0.0
 13
-107.7023686582773
 23
144.6699901500852
 33
0.0
210
0.0
220
0.0
230
-1.0
  0
SOLID
  5
259
330
217
100
AcDbEntity
  8
EBENE_5
 62
   250
100
AcDbTrace
 10
-107.7023686582773
 20
144.6699901500852
 30
0.0
 11
-107.6968511188993
 21
151.889913819237
 31
0.0
 12
-107.7023686582773
 22
151.6831756559678
 32
0.0
 13
-107.7023686582773
 23
151.6831756559678
 33
0.0
210
0.0
220
0.0
230
-1.0
  0
ENDBLK
  5
25B
330
217
100
AcDbEntity
  8
0
100
AcDbBlockEnd
  0
BLOCK
  5
25E
330
25C
100
AcDbEntity
  8
0
100
AcDbBlockBegin
  2
*U22
 70
     1
 71
     0
 10
0.0
 20
0.0
 30
0.0
  3
*U22
  1

  0
SOLID
  5
25D
330
25C
100
AcDbEntity
  8
EBENE_5
 62
   250
100
AcDbTrace
 10
83.96495608636965
 20
159.9166147877204
 30
0.0
 11
82.57864874856588
 21
160.7169109968949
 31
0.0
 12
83.96495608636965
 22
161.5172072060694
 32
0.0
 13
83.96495608636965
 23
161.5172072060694
 33
0.0
  0
ENDBLK
  5
25F
330
25C
100
AcDbEntity
  8
0
100
AcDbBlockEnd
  0
BLOCK
  5
262
330
260
100
AcDbEntity
  8
0
100
AcDbBlockBegin
  2
*U23
 70
     1
 71
     0
 10
0.0
 20
0.0
 30
0.0
  3
*U23
  1

  0
SOLID
  5
261
330
260
100
AcDbEntity
  8
EBENE_5
 62
   250
100
AcDbTrace
 10
-105.9949782094315
 20
159.914030964402
 30
0.0
 11
-105.9949782094315
 21
161.514623382751
 31
0.0
 12
-107.5297692606034
 22
160.7143271735765
 32
0.0
 13
-107.5297692606034
 23
160.7143271735765
 33
0.0
210
0.0
220
0.0
230
-1.0
  0
ENDBLK
  5
263
330
260
100
AcDbEntity
  8
0
100
AcDbBlockEnd
  0
BLOCK
  5
266
330
264
100
AcDbEntity
  8
0
100
AcDbBlockBegin
  2
*U24
 70
     1
 71
     0
 10
0.0
 20
0.0
 30
0.0
  3
*U24
  1

  0
SOLID
  5
265
330
264
100
AcDbEntity
  8
EBENE_5
 62
   250
100
AcDbTrace
 10
101.5876646476711
 20
141.7127182346509
 30
0.0
 11
100.2013573098673
 21
142.5130144438254
 31
0.0
 12
101.5876646476711
 22
143.3133106529999
 32
0.0
 13
101.5876646476711
 23
143.3133106529999
 33
0.0
  0
ENDBLK
  5
267
330
264
100
AcDbEntity
  8
0
100
AcDbBlockEnd
  0
BLOCK
  5
26A
330
268
100
AcDbEntity
  8
0
100
AcDbBlockBegin
  2
*U25
 70
     1
 71
     0
 10
0.0
 20
0.0
 30
0.0
  3
*U25
  1

  0
SOLID
  5
269
330
268
100
AcDbEntity
  8
EBENE_5
 62
   250
100
AcDbTrace
 10
-94.22101211182161
 20
141.7206419594942
 30
0.0
 11
-94.22101211182161
 21
143.3212343778432
 31
0.0
 12
-95.75614767276933
 22
142.5209381686687
 32
0.0
 13
-95.75614767276933
 23
142.5209381686687
 33
0.0
210
0.0
220
0.0
230
-1.0
  0
ENDBLK
  5
26B
330
268
100
AcDbEntity
  8
0
100
AcDbBlockEnd
  0
BLOCK
  5
26F
330
26C
100
AcDbEntity
  8
0
100
AcDbBlockBegin
  2
*U26
 70
     1
 71
     0
 10
0.0
 20
0.0
 30
0.0
  3
*U26
  1

  0
SOLID
  5
26D
330
26C
100
AcDbEntity
  8
EBENE_5
 62
   250
100
AcDbTrace
 10
-79.89491759511372
 20
145.001580809289
 30
0.0
 11
-79.09496589571502
 21
146.3878881470928
 31
0.0
 12
-79.89491759511372
 22
146.3878881470928
 32
0.0
 13
-79.89491759511372
 23
146.3878881470928
 33
0.0
210
0.0
220
0.0
230
-1.0
  0
SOLID
  5
26E
330
26C
100
AcDbEntity
  8
EBENE_5
 62
   250
100
AcDbTrace
 10
-79.89491759511372
 20
145.001580809289
 30
0.0
 11
-79.89491759511372
 21
146.3878881470928
 31
0.0
 12
-80.69555831406402
 22
146.3878881470928
 32
0.0
 13
-80.69555831406402
 23
146.3878881470928
 33
0.0
210
0.0
220
0.0
230
-1.0
  0
ENDBLK
  5
270
330
26C
100
AcDbEntity
  8
0
100
AcDbBlockEnd
  0
BLOCK
  5
274
330
271
100
AcDbEntity
  8
0
100
AcDbBlockBegin
  2
*U27
 70
     1
 71
     0
 10
0.0
 20
0.0
 30
0.0
  3
*U27
  1

  0
SOLID
  5
272
330
271
100
AcDbEntity
  8
EBENE_5
 62
   250
100
AcDbTrace
 10
79.78260740820417
 20
150.6413780939602
 30
0.0
 11
78.98196668925388
 21
150.6413780939602
 31
0.0
 12
79.78260740820417
 22
152.027685431764
 32
0.0
 13
79.78260740820417
 23
152.027685431764
 33
0.0
  0
SOLID
  5
273
330
271
100
AcDbEntity
  8
EBENE_5
 62
   250
100
AcDbTrace
 10
-79.78260740820417
 20
150.6413780939602
 30
0.0
 11
-79.78260740820417
 21
152.027685431764
 31
0.0
 12
-80.58255910760288
 22
150.6413780939602
 32
0.0
 13
-80.58255910760288
 23
150.6413780939602
 33
0.0
210
0.0
220
0.0
230
-1.0
  0
ENDBLK
  5
275
330
271
100
AcDbEntity
  8
0
100
AcDbBlockEnd
  0
BLOCK
  5
279
330
276
100
AcDbEntity
  8
0
100
AcDbBlockBegin
  2
*U28
 70
     1
 71
     0
 10
0.0
 20
0.0
 30
0.0
  3
*U28
  1

  0
SOLID
  5
277
330
276
100
AcDbEntity
  8
EBENE_5
 62
   250
100
AcDbTrace
 10
-118.1754658424808
 20
144.6944503441667
 30
0.0
 11
-117.3755141430821
 21
146.0807576819705
 31
0.0
 12
-118.1754658424808
 22
146.0807576819705
 32
0.0
 13
-118.1754658424808
 23
146.0807576819705
 33
0.0
210
0.0
220
0.0
230
-1.0
  0
SOLID
  5
278
330
276
100
AcDbEntity
  8
EBENE_5
 62
   250
100
AcDbTrace
 10
-118.1754658424808
 20
144.6944503441667
 30
0.0
 11
-118.1754658424808
 21
146.0807576819705
 31
0.0
 12
-118.9761065614311
 22
146.0807576819705
 32
0.0
 13
-118.9761065614311
 23
146.0807576819705
 33
0.0
210
0.0
220
0.0
230
-1.0
  0
ENDBLK
  5
27A
330
276
100
AcDbEntity
  8
0
100
AcDbBlockEnd
  0
BLOCK
  5
27E
330
27B
100
AcDbEntity
  8
0
100
AcDbBlockBegin
  2
*U29
 70
     1
 71
     0
 10
0.0
 20
0.0
 30
0.0
  3
*U29
  1

  0
SOLID
  5
27C
330
27B
100
AcDbEntity
  8
EBENE_5
 62
   250
100
AcDbTrace
 10
112.0855665357319
 20
150.5919409411334
 30
0.0
 11
111.2849258167817
 21
150.5919409411334
 31
0.0
 12
112.0855665357319
 22
151.9782482789372
 32
0.0
 13
112.0855665357319
 23
151.9782482789372
 33
0.0
  0
SOLID
  5
27D
330
27B
100
AcDbEntity
  8
EBENE_5
 62
   250
100
AcDbTrace
 10
-112.0855665357319
 20
150.5919409411334
 30
0.0
 11
-112.0855665357319
 21
151.9782482789372
 31
0.0
 12
-112.8855182351306
 22
150.5919409411334
 32
0.0
 13
-112.8855182351306
 23
150.5919409411334
 33
0.0
210
0.0
220
0.0
230
-1.0
  0
ENDBLK
  5
27F
330
27B
100
AcDbEntity
  8
0
100
AcDbBlockEnd
  0
BLOCK
  5
283
330
280
100
AcDbEntity
  8
0
100
AcDbBlockBegin
  2
*U30
 70
     1
 71
     0
 10
0.0
 20
0.0
 30
0.0
  3
*U30
  1

  0
SOLID
  5
281
330
280
100
AcDbEntity
  8
EBENE_5
 62
   250
100
AcDbTrace
 10
-112.0876335943867
 20
146.0006591590979
 30
0.0
 11
-111.287681894988
 21
147.3869664969017
 31
0.0
 12
-112.0876335943867
 22
147.3869664969017
 32
0.0
 13
-112.0876335943867
 23
147.3869664969017
 33
0.0
210
0.0
220
0.0
230
-1.0
  0
SOLID
  5
282
330
280
100
AcDbEntity
  8
EBENE_5
 62
   250
100
AcDbTrace
 10
-112.0876335943867
 20
146.0006591590979
 30
0.0
 11
-112.0876335943867
 21
147.3869664969017
 31
0.0
 12
-112.888274313337
 22
147.3869664969017
 32
0.0
 13
-112.888274313337
 23
147.3869664969017
 33
0.0
210
0.0
220
0.0
230
-1.0
  0
ENDBLK
  5
284
330
280
100
AcDbEntity
  8
0
100
AcDbBlockEnd
  0
BLOCK
  5
288
330
285
100
AcDbEntity
  8
0
100
AcDbBlockBegin
  2
*U31
 70
     1
 71
     0
 10
0.0
 20
0.0
 30
0.0
  3
*U31
  1

  0
SOLID
  5
286
330
285
100
AcDbEntity
  8
EBENE_5
 62
   250
100
AcDbTrace
 10
118.1585848634668
 20
150.5884958433755
 30
0.0
 11
117.3579441445165
 21
150.5884958433755
 31
0.0
 12
118.1585848634668
 22
151.9748031811793
 32
0.0
 13
118.1585848634668
 23
151.9748031811793
 33
0.0
  0
SOLID
  5
287
330
285
100
AcDbEntity
  8
EBENE_5
 62
   250
100
AcDbTrace
 10
-118.1585848634668
 20
150.5884958433755
 30
0.0
 11
-118.1585848634668
 21
151.9748031811793
 31
0.0
 12
-118.9585365628655
 22
150.5884958433755
 32
0.0
 13
-118.9585365628655
 23
150.5884958433755
 33
0.0
210
0.0
220
0.0
230
-1.0
  0
ENDBLK
  5
289
330
285
100
AcDbEntity
  8
0
100
AcDbBlockEnd
  0
BLOCK
  5
28D
330
28A
100
AcDbEntity
  8
0
100
AcDbBlockBegin
  2
*U32
 70
     1
 71
     0
 10
0.0
 20
0.0
 30
0.0
  3
*U32
  1

  0
SOLID
  5
28B
330
28A
100
AcDbEntity
  8
EBENE_3
 62
   250
100
AcDbTrace
 10
135.6886202950791
 20
125.6053359221889
 30
0.0
 11
134.8883240859046
 21
125.6053359221889
 31
0.0
 12
135.6886202950791
 22
126.9916432599927
 32
0.0
 13
135.6886202950791
 23
126.9916432599927
 33
0.0
  0
SOLID
  5
28C
330
28A
100
AcDbEntity
  8
EBENE_3
 62
   250
100
AcDbTrace
 10
-135.6886202950791
 20
125.6053359221889
 30
0.0
 11
-135.6886202950791
 21
126.9916432599927
 31
0.0
 12
-136.4889165042536
 22
125.6053359221889
 32
0.0
 13
-136.4889165042536
 23
125.6053359221889
 33
0.0
210
0.0
220
0.0
230
-1.0
  0
ENDBLK
  5
28E
330
28A
100
AcDbEntity
  8
0
100
AcDbBlockEnd
  0
BLOCK
  5
292
330
28F
100
AcDbEntity
  8
0
100
AcDbBlockBegin
  2
*U33
 70
     1
 71
     0
 10
0.0
 20
0.0
 30
0.0
  3
*U33
  1

  0
SOLID
  5
290
330
28F
100
AcDbEntity
  8
EBENE_3
 62
   250
100
AcDbTrace
 10
-135.6886202950791
 20
123.3863484562858
 30
0.0
 11
-134.8883240859046
 21
124.7726557940896
 31
0.0
 12
-135.6886202950791
 22
124.7726557940896
 32
0.0
 13
-135.6886202950791
 23
124.7726557940896
 33
0.0
210
0.0
220
0.0
230
-1.0
  0
SOLID
  5
291
330
28F
100
AcDbEntity
  8
EBENE_3
 62
   250
100
AcDbTrace
 10
-135.6886202950791
 20
123.3863484562858
 30
0.0
 11
-135.6886202950791
 21
124.7726557940896
 31
0.0
 12
-136.4889165042536
 22
124.7726557940896
 32
0.0
 13
-136.4889165042536
 23
124.7726557940896
 33
0.0
210
0.0
220
0.0
230
-1.0
  0
ENDBLK
  5
293
330
28F
100
AcDbEntity
  8
0
100
AcDbBlockEnd
  0
BLOCK
  5
297
330
294
100
AcDbEntity
  8
0
100
AcDbBlockBegin
  2
*U34
 70
     1
 71
     0
 10
0.0
 20
0.0
 30
0.0
  3
*U34
  1

  0
SOLID
  5
295
330
294
100
AcDbEntity
  8
EBENE_3
 62
   250
100
AcDbTrace
 10
-100.548278654094
 20
121.3637315625865
 30
0.0
 11
-99.88475282591062
 21
122.8206634044285
 31
0.0
 12
-100.548278654094
 22
122.756541461893
 32
0.0
 13
-100.548278654094
 23
122.756541461893
 33
0.0
210
0.0
220
0.0
230
-1.0
  0
SOLID
  5
296
330
294
100
AcDbEntity
  8
EBENE_3
 62
   250
100
AcDbTrace
 10
-100.548278654094
 20
121.3637315625865
 30
0.0
 11
-100.548278654094
 21
122.756541461893
 31
0.0
 12
-101.4782827938558
 22
122.6666675346476
 32
0.0
 13
-101.4782827938558
 23
122.6666675346476
 33
0.0
210
0.0
220
0.0
230
-1.0
  0
ENDBLK
  5
298
330
294
100
AcDbEntity
  8
0
100
AcDbBlockEnd
  0
BLOCK
  5
29C
330
299
100
AcDbEntity
  8
0
100
AcDbBlockBegin
  2
*U35
 70
     1
 71
     0
 10
0.0
 20
0.0
 30
0.0
  3
*U35
  1

  0
SOLID
  5
29A
330
299
100
AcDbEntity
  8
EBENE_3
 62
   250
100
AcDbTrace
 10
-79.82136475798124
 20
104.8086587964774
 30
0.0
 11
-79.02106854880674
 21
106.1949661342811
 31
0.0
 12
-79.82136475798124
 22
106.1949661342811
 32
0.0
 13
-79.82136475798124
 23
106.1949661342811
 33
0.0
210
0.0
220
0.0
230
-1.0
  0
SOLID
  5
29B
330
299
100
AcDbEntity
  8
EBENE_3
 62
   250
100
AcDbTrace
 10
-79.82136475798124
 20
104.8086587964774
 30
0.0
 11
-79.82136475798124
 21
106.1949661342811
 31
0.0
 12
-80.62166096715573
 22
106.1949661342811
 32
0.0
 13
-80.62166096715573
 23
106.1949661342811
 33
0.0
210
0.0
220
0.0
230
-1.0
  0
ENDBLK
  5
29D
330
299
100
AcDbEntity
  8
0
100
AcDbBlockEnd
  0
BLOCK
  5
2A1
330
29E
100
AcDbEntity
  8
0
100
AcDbBlockBegin
  2
*U36
 70
     1
 71
     0
 10
0.0
 20
0.0
 30
0.0
  3
*U36
  1

  0
SOLID
  5
29F
330
29E
100
AcDbEntity
  8
EBENE_3
 62
   250
100
AcDbTrace
 10
79.82394858129972
 20
100.9399862691743
 30
0.0
 11
79.02365237212521
 21
100.9399862691743
 31
0.0
 12
79.82394858129972
 22
102.3262936069781
 32
0.0
 13
79.82394858129972
 23
102.3262936069781
 33
0.0
  0
SOLID
  5
2A0
330
29E
100
AcDbEntity
  8
EBENE_3
 62
   250
100
AcDbTrace
 10
-79.82394858129972
 20
100.9399862691743
 30
0.0
 11
-79.82394858129972
 21
102.3262936069781
 31
0.0
 12
-80.62424479047421
 22
100.9399862691743
 32
0.0
 13
-80.62424479047421
 23
100.9399862691743
 33
0.0
210
0.0
220
0.0
230
-1.0
  0
ENDBLK
  5
2A2
330
29E
100
AcDbEntity
  8
0
100
AcDbBlockEnd
  0
BLOCK
  5
2A6
330
2A3
100
AcDbEntity
  8
0
100
AcDbBlockBegin
  2
*U37
 70
     1
 71
     0
 10
0.0
 20
0.0
 30
0.0
  3
*U37
  1

  0
SOLID
  5
2A4
330
2A3
100
AcDbEntity
  8
EBENE_3
 62
   250
100
AcDbTrace
 10
-72.99731511901072
 20
127.0801822723723
 30
0.0
 11
-72.19701890983623
 21
128.4664896101761
 31
0.0
 12
-72.99731511901072
 22
128.4664896101761
 32
0.0
 13
-72.99731511901072
 23
128.4664896101761
 33
0.0
210
0.0
220
0.0
230
-1.0
  0
SOLID
  5
2A5
330
2A3
100
AcDbEntity
  8
EBENE_3
 62
   250
100
AcDbTrace
 10
-72.99731511901072
 20
127.0801822723723
 30
0.0
 11
-72.99731511901072
 21
128.4664896101761
 31
0.0
 12
-73.79761132818523
 22
128.4664896101761
 32
0.0
 13
-73.79761132818523
 23
128.4664896101761
 33
0.0
210
0.0
220
0.0
230
-1.0
  0
ENDBLK
  5
2A7
330
2A3
100
AcDbEntity
  8
0
100
AcDbBlockEnd
  0
BLOCK
  5
2AB
330
2A8
100
AcDbEntity
  8
0
100
AcDbBlockBegin
  2
*U38
 70
     1
 71
     0
 10
0.0
 20
0.0
 30
0.0
  3
*U38
  1

  0
SOLID
  5
2A9
330
2A8
100
AcDbEntity
  8
EBENE_3
 62
   250
100
AcDbTrace
 10
73.01247354914575
 20
118.0464469314452
 30
0.0
 11
72.21217733997126
 21
118.0464469314452
 31
0.0
 12
73.01247354914575
 22
119.4327542692489
 32
0.0
 13
73.01247354914575
 23
119.4327542692489
 33
0.0
  0
SOLID
  5
2AA
330
2A8
100
AcDbEntity
  8
EBENE_3
 62
   250
100
AcDbTrace
 10
-73.01247354914575
 20
118.0464469314452
 30
0.0
 11
-73.01247354914575
 21
119.4327542692489
 31
0.0
 12
-73.81276975832026
 22
118.0464469314452
 32
0.0
 13
-73.81276975832026
 23
118.0464469314452
 33
0.0
210
0.0
220
0.0
230
-1.0
  0
ENDBLK
  5
2AC
330
2A8
100
AcDbEntity
  8
0
100
AcDbBlockEnd
  0
BLOCK
  5
2B0
330
2AD
100
AcDbEntity
  8
0
100
AcDbBlockBegin
  2
*U39
 70
     1
 71
     0
 10
0.0
 20
0.0
 30
0.0
  3
*U39
  1

  0
SOLID
  5
2AE
330
2AD
100
AcDbEntity
  8
EBENE_3
 62
   250
100
AcDbTrace
 10
-164.3718152083165
 20
102.5267982964914
 30
0.0
 11
-163.5711744893662
 21
103.9131056342952
 31
0.0
 12
-164.3718152083165
 22
103.9131056342952
 32
0.0
 13
-164.3718152083165
 23
103.9131056342952
 33
0.0
210
0.0
220
0.0
230
-1.0
  0
SOLID
  5
2AF
330
2AD
100
AcDbEntity
  8
EBENE_3
 62
   250
100
AcDbTrace
 10
-164.3718152083165
 20
102.5267982964914
 30
0.0
 11
-164.3718152083165
 21
103.9131056342952
 31
0.0
 12
-165.1724559272668
 22
103.9131056342952
 32
0.0
 13
-165.1724559272668
 23
103.9131056342952
 33
0.0
210
0.0
220
0.0
230
-1.0
  0
ENDBLK
  5
2B1
330
2AD
100
AcDbEntity
  8
0
100
AcDbBlockEnd
  0
BLOCK
  5
2B5
330
2B2
100
AcDbEntity
  8
0
100
AcDbBlockBegin
  2
*U40
 70
     1
 71
     0
 10
0.0
 20
0.0
 30
0.0
  3
*U40
  1

  0
SOLID
  5
2B3
330
2B2
100
AcDbEntity
  8
EBENE_3
 62
   250
100
AcDbTrace
 10
164.3773273647292
 20
125.581564747659
 30
0.0
 11
163.5766866457789
 21
125.581564747659
 31
0.0
 12
164.3773273647292
 22
126.9678720854627
 32
0.0
 13
164.3773273647292
 23
126.9678720854627
 33
0.0
  0
SOLID
  5
2B4
330
2B2
100
AcDbEntity
  8
EBENE_3
 62
   250
100
AcDbTrace
 10
-164.3773273647292
 20
125.581564747659
 30
0.0
 11
-164.3773273647292
 21
126.9678720854627
 31
0.0
 12
-165.1772790641279
 22
125.581564747659
 32
0.0
 13
-165.1772790641279
 23
125.581564747659
 33
0.0
210
0.0
220
0.0
230
-1.0
  0
ENDBLK
  5
2B6
330
2B2
100
AcDbEntity
  8
0
100
AcDbBlockEnd
  0
BLOCK
  5
2B9
330
2B7
100
AcDbEntity
  8
0
100
AcDbBlockBegin
  2
*U41
 70
     1
 71
     0
 10
0.0
 20
0.0
 30
0.0
  3
*U41
  1

  0
SOLID
  5
2B8
330
2B7
100
AcDbEntity
  8
EBENE_3
 62
   250
100
AcDbTrace
 10
-147.4097041421042
 20
132.862778859111
 30
0.0
 11
-147.4097041421042
 21
134.46337127746
 31
0.0
 12
-148.796011479908
 22
133.6630750682855
 32
0.0
 13
-148.796011479908
 23
133.6630750682855
 33
0.0
210
0.0
220
0.0
230
-1.0
  0
ENDBLK
  5
2BA
330
2B7
100
AcDbEntity
  8
0
100
AcDbBlockEnd
  0
BLOCK
  5
2BD
330
2BB
100
AcDbEntity
  8
0
100
AcDbBlockBegin
  2
*U42
 70
     1
 71
     0
 10
0.0
 20
0.0
 30
0.0
  3
*U42
  1

  0
SOLID
  5
2BC
330
2BB
100
AcDbEntity
  8
EBENE_3
 62
   250
100
AcDbTrace
 10
84.02042216027284
 20
132.8672574861963
 30
0.0
 11
82.63411482246906
 21
133.6672091855951
 31
0.0
 12
84.02042216027284
 22
134.4678499045453
 32
0.0
 13
84.02042216027284
 23
134.4678499045453
 33
0.0
  0
ENDBLK
  5
2BE
330
2BB
100
AcDbEntity
  8
0
100
AcDbBlockEnd
  0
BLOCK
  5
2C1
330
2BF
100
AcDbEntity
  8
0
100
AcDbBlockBegin
  2
*U43
 70
     1
 71
     0
 10
0.0
 20
0.0
 30
0.0
  3
*U43
  1

  0
SOLID
  5
2C0
330
2BF
100
AcDbEntity
  8
EBENE_3
 62
   250
100
AcDbTrace
 10
-145.1207811917145
 20
129.3349987549582
 30
0.0
 11
-145.1207811917145
 21
130.9355911733072
 31
0.0
 12
-146.5070885295183
 22
130.1352949641327
 32
0.0
 13
-146.5070885295183
 23
130.1352949641327
 33
0.0
210
0.0
220
0.0
230
-1.0
  0
ENDBLK
  5
2C2
330
2BF
100
AcDbEntity
  8
0
100
AcDbBlockEnd
  0
BLOCK
  5
2C5
330
2C3
100
AcDbEntity
  8
0
100
AcDbBlockBegin
  2
*U44
 70
     1
 71
     0
 10
0.0
 20
0.0
 30
0.0
  3
*U44
  1

  0
SOLID
  5
2C4
330
2C3
100
AcDbEntity
  8
EBENE_3
 62
   250
100
AcDbTrace
 10
86.31520177685113
 20
129.3394773820436
 30
0.0
 11
84.92889443904734
 21
130.1394290814423
 31
0.0
 12
86.31520177685113
 22
130.9400698003926
 32
0.0
 13
86.31520177685113
 23
130.9400698003926
 33
0.0
  0
ENDBLK
  5
2C6
330
2C3
100
AcDbEntity
  8
0
100
AcDbBlockEnd
  0
BLOCK
  5
2C9
330
2C7
100
AcDbEntity
  8
0
100
AcDbBlockBegin
  2
*U45
 70
     1
 71
     0
 10
0.0
 20
0.0
 30
0.0
  3
*U45
  1

  0
SOLID
  5
2C8
330
2C7
100
AcDbEntity
  8
EBENE_5
 62
   250
100
AcDbTrace
 10
91.52763468464715
 20
155.620922393318
 30
0.0
 11
90.14132734684337
 21
156.4212186024925
 31
0.0
 12
91.52763468464715
 22
157.221514811667
 32
0.0
 13
91.52763468464715
 23
157.221514811667
 33
0.0
  0
ENDBLK
  5
2CA
330
2C7
100
AcDbEntity
  8
0
100
AcDbBlockEnd
  0
BLOCK
  5
2CD
330
2CB
100
AcDbEntity
  8
0
100
AcDbBlockBegin
  2
*U46
 70
     1
 71
     0
 10
0.0
 20
0.0
 30
0.0
  3
*U46
  1

  0
SOLID
  5
2CC
330
2CB
100
AcDbEntity
  8
EBENE_5
 62
   250
100
AcDbTrace
 10
-104.2307436475793
 20
155.620922393318
 30
0.0
 11
-104.2307436475793
 21
157.221514811667
 31
0.0
 12
-105.7655346987512
 22
156.4212186024925
 32
0.0
 13
-105.7655346987512
 23
156.4212186024925
 33
0.0
210
0.0
220
0.0
230
-1.0
  0
ENDBLK
  5
2CE
330
2CB
100
AcDbEntity
  8
0
100
AcDbBlockEnd
  0
BLOCK
  5
2D2
330
2CF
100
AcDbEntity
  8
0
100
AcDbBlockBegin
  2
*U47
 70
     1
 71
     0
 10
0.0
 20
0.0
 30
0.0
  3
*U47
  1

  0
SOLID
  5
2D0
330
2CF
100
AcDbEntity
  8
EBENE_3
 62
   250
100
AcDbTrace
 10
158.4462470646224
 20
118.0678065375445
 30
0.0
 11
157.6462953652237
 21
118.0678065375445
 31
0.0
 12
158.4462470646224
 22
119.4541138753483
 32
0.0
 13
158.4462470646224
 23
119.4541138753483
 33
0.0
  0
SOLID
  5
2D1
330
2CF
100
AcDbEntity
  8
EBENE_3
 62
   250
100
AcDbTrace
 10
-158.4462470646224
 20
118.0678065375445
 30
0.0
 11
-158.4462470646224
 21
119.4541138753483
 31
0.0
 12
-159.2468877835727
 22
118.0678065375445
 32
0.0
 13
-159.2468877835727
 23
118.0678065375445
 33
0.0
210
0.0
220
0.0
230
-1.0
  0
ENDBLK
  5
2D3
330
2CF
100
AcDbEntity
  8
0
100
AcDbBlockEnd
  0
BLOCK
  5
2D7
330
2D4
100
AcDbEntity
  8
0
100
AcDbBlockBegin
  2
*U48
 70
     1
 71
     0
 10
0.0
 20
0.0
 30
0.0
  3
*U48
  1

  0
SOLID
  5
2D5
330
2D4
100
AcDbEntity
  8
EBENE_3
 62
   250
100
AcDbTrace
 10
-158.4310886344873
 20
104.804180169392
 30
0.0
 11
-157.6311369350886
 21
106.1904875071958
 31
0.0
 12
-158.4310886344873
 22
106.1904875071958
 32
0.0
 13
-158.4310886344873
 23
106.1904875071958
 33
0.0
210
0.0
220
0.0
230
-1.0
  0
SOLID
  5
2D6
330
2D4
100
AcDbEntity
  8
EBENE_3
 62
   250
100
AcDbTrace
 10
-158.4310886344873
 20
104.804180169392
 30
0.0
 11
-158.4310886344873
 21
106.1904875071958
 31
0.0
 12
-159.2317293534377
 22
106.1904875071958
 32
0.0
 13
-159.2317293534377
 23
106.1904875071958
 33
0.0
210
0.0
220
0.0
230
-1.0
  0
ENDBLK
  5
2D8
330
2D4
100
AcDbEntity
  8
0
100
AcDbBlockEnd
  0
ENDSEC
  0
SECTION
  2
ENTITIES
  0
SPLINE
  5
3C
330
1F
100
AcDbEntity
  8
EBENE_5
 62
   250
100
AcDbSpline
210
0.0
220
0.0
230
1.0
 70
    11
 71
     3
 72
    53
 73
    49
 74
     0
 42
0.0000000001
 43
0.0000000001
 40
0.0
 40
0.0
 40
0.0
 40
0.0
 40
1.0
 40
1.0
 40
1.0
 40
2.0
 40
2.0
 40
2.0
 40
3.0
 40
3.0
 40
3.0
 40
4.0
 40
4.0
 40
4.0
 40
5.0
 40
5.0
 40
5.0
 40
6.0
 40
6.0
 40
6.0
 40
7.0
 40
7.0
 40
7.0
 40
8.0
 40
8.0
 40
8.0
 40
9.0
 40
9.0
 40
9.0
 40
10.0
 40
10.0
 40
10.0
 40
11.0
 40
11.0
 40
11.0
 40
12.0
 40
12.0
 40
12.0
 40
13.0
 40
13.0
 40
13.0
 40
14.0
 40
14.0
 40
14.0
 40
15.0
 40
15.0
 40
15.0
 40
16.0
 40
16.0
 40
16.0
 40
16.0
 10
95.89050648532984
 20
145.8482135833081
 30
0.0
 10
94.77429481175025
 20
145.9246947535348
 30
0.0
 10
95.89050648532984
 20
145.8482135833081
 30
0.0
 10
90.45965437967904
 20
146.2009915937234
 30
0.0
 10
90.10859891814273
 20
146.2237292389259
 30
0.0
 10
90.10790989859115
 20
146.2009915937234
 30
0.0
 10
90.10790989859115
 20
146.5496354868291
 30
0.0
 10
90.10825440836695
 20
146.7005307686278
 30
0.0
 10
90.11721166253764
 20
151.3862082292315
 30
0.0
 10
90.1034312715058
 20
151.6862762439499
 30
0.0
 10
90.08689480226758
 20
152.042843861899
 30
0.0
 10
90.08689480226758
 20
152.042843861899
 30
0.0
 10
89.75409835884848
 20
152.042843861899
 30
0.0
 10
89.42130191542938
 20
152.042843861899
 30
0.0
 10
82.61998992166141
 20
152.0390542543652
 30
0.0
 10
82.61998992166141
 20
152.0390542543652
 30
0.0
 10
82.61998992166141
 20
152.0390542543652
 30
0.0
 10
82.61998992166141
 20
151.6862762439499
 30
0.0
 10
82.61998992166141
 20
151.6862762439499
 30
0.0
 10
82.61998992166141
 20
151.6862762439499
 30
0.0
 10
89.05508802375806
 20
151.6859317341742
 30
0.0
 10
89.40476544619116
 20
151.6862762439499
 30
0.0
 10
89.75409835884848
 20
151.6862762439499
 30
0.0
 10
89.75409835884848
 20
151.684553695071
 30
0.0
 10
89.75409835884848
 20
151.3365988215168
 30
0.0
 10
89.75409835884848
 20
150.9889884577385
 30
0.0
 10
89.75409835884848
 20
146.5482574477259
 30
0.0
 10
89.75409835884848
 20
146.1954794373106
 30
0.0
 10
89.75409835884848
 20
145.8427014268953
 30
0.0
 10
89.75478737840007
 20
145.8712957382864
 30
0.0
 10
90.10756538881535
 20
145.8485580930839
 30
0.0
 10
95.53256082827762
 20
145.4971581217718
 30
0.0
 10
90.10756538881535
 20
145.8485580930839
 30
0.0
 10
95.53256082827762
 20
145.4971581217718
 30
0.0
 10
95.83951903851201
 20
145.4771765547756
 30
0.0
 10
95.88292727026233
 20
145.4144757755807
 30
0.0
 10
95.88912844622665
 20
145.1884773626584
 30
0.0
 10
95.88878393645086
 20
145.0784064892916
 30
0.0
 10
95.88981746577825
 20
145.8576876021425
 30
0.0
 10
95.89050648532984
 20
144.9240661097349
 30
0.0
 10
95.89050648532984
 20
144.9240661097349
 30
0.0
 10
96.13786450435148
 20
144.9240661097349
 30
0.0
 10
96.24328449574512
 20
144.9240661097349
 30
0.0
 10
96.24397351529672
 20
145.3705507791667
 30
0.0
 10
96.24397351529672
 20
145.0840909005922
 30
0.0
 10
96.24397351529672
 20
145.3267980376406
 30
0.0
 10
96.24397351529672
 20
145.3267980376406
 30
0.0
 10
95.89050648532984
 20
145.8482135833081
 30
0.0
 10
95.89050648532984
 20
145.8482135833081
 30
0.0
  0
INSERT
  5
3D
330
1F
100
AcDbEntity
  8
EBENE_5
 62
   250
100
AcDbBlockReference
  2
*U20
 10
0.0
 20
0.0
 30
0.0
1001
ACAD
1002
{
1000
R14_HATCH_DATA
1000
3D
1011
1.0
1021
0.0
1031
0.0
1011
0.0
1021
1.0
1031
0.0
1011
0.0
1021
0.0
1031
1.0
1040
0.0
1010
0.0
1020
0.0
1030
1.0
1000
SOLID
1070
     1
1070
     1
1071
        1
1071
        1
1071
        1
1070
     4
1070
     3
1070
     0
1070
     1
1071
       53
1071
       49
1040
0.0
1040
0.0
1040
0.0
1040
0.0
1040
1.0
1040
1.0
1040
1.0
1040
2.0
1040
2.0
1040
2.0
1040
3.0
1040
3.0
1040
3.0
1040
4.0
1040
4.0
1040
4.0
1040
5.0
1040
5.0
1040
5.0
1040
6.0
1040
6.0
1040
6.0
1040
7.0
1040
7.0
1040
7.0
1040
8.0
1040
8.0
1040
8.0
1040
9.0
1040
9.0
1040
9.0
1040
10.0
1040
10.0
1040
10.0
1040
11.0
1040
11.0
1040
11.0
1040
12.0
1040
12.0
1040
12.0
1040
13.0
1040
13.0
1040
13.0
1040
14.0
1040
14.0
1040
14.0
1040
15.0
1040
15.0
1040
15.0
1040
16.0
1040
16.0
1040
16.0
1040
16.0
1040
95.89050648532984
1040
145.8482135833081
1040
94.77429481175025
1040
145.9246947535348
1040
95.89050648532984
1040
145.8482135833081
1040
90.45965437967904
1040
146.2009915937234
1040
90.10859891814273
1040
146.2237292389259
1040
90.10790989859115
1040
146.2009915937234
1040
90.10790989859115
1040
146.5496354868291
1040
90.10825440836695
1040
146.7005307686278
1040
90.11721166253764
1040
151.3862082292315
1040
90.1034312715058
1040
151.6862762439499
1040
90.08689480226758
1040
152.042843861899
1040
90.08689480226758
1040
152.042843861899
1040
89.75409835884848
1040
152.042843861899
1040
89.42130191542938
1040
152.042843861899
1040
82.61998992166141
1040
152.0390542543652
1040
82.61998992166141
1040
152.0390542543652
1040
82.61998992166141
1040
152.0390542543652
1040
82.61998992166141
1040
151.6862762439499
1040
82.61998992166141
1040
151.6862762439499
1040
82.61998992166141
1040
151.6862762439499
1040
89.05508802375806
1040
151.6859317341742
1040
89.40476544619116
1040
151.6862762439499
1040
89.75409835884848
1040
151.6862762439499
1040
89.75409835884848
1040
151.684553695071
1040
89.75409835884848
1040
151.3365988215168
1040
89.75409835884848
1040
150.9889884577385
1040
89.75409835884848
1040
146.5482574477259
1040
89.75409835884848
1040
146.1954794373106
1040
89.75409835884848
1040
145.8427014268953
1040
89.75478737840007
1040
145.8712957382864
1040
90.10756538881535
1040
145.8485580930839
1040
95.53256082827762
1040
145.4971581217718
1040
90.10756538881535
1040
145.8485580930839
1040
95.53256082827762
1040
145.4971581217718
1040
95.83951903851201
1040
145.4771765547756
1040
95.88292727026233
1040
145.4144757755807
1040
95.88912844622665
1040
145.1884773626584
1040
95.88878393645086
1040
145.0784064892916
1040
95.88981746577825
1040
145.8576876021425
1040
95.89050648532984
1040
144.9240661097349
1040
95.89050648532984
1040
144.9240661097349
1040
96.13786450435148
1040
144.9240661097349
1040
96.24328449574512
1040
144.9240661097349
1040
96.24397351529672
1040
145.3705507791667
1040
96.24397351529672
1040
145.0840909005922
1040
96.24397351529672
1040
145.3267980376406
1040
96.24397351529672
1040
145.3267980376406
1040
95.89050648532984
1040
145.8482135833081
1040
95.89050648532984
1040
145.8482135833081
1071
        0
1070
     2
1070
     1
1071
        0
1002
}
  0
SPLINE
  5
3E
330
1F
100
AcDbEntity
  8
EBENE_5
 62
   250
100
AcDbSpline
210
0.0
220
0.0
230
1.0
 70
    11
 71
     3
 72
    65
 73
    61
 74
     0
 42
0.0000000001
 43
0.0000000001
 40
0.0
 40
0.0
 40
0.0
 40
0.0
 40
1.0
 40
1.0
 40
1.0
 40
2.0
 40
2.0
 40
2.0
 40
3.0
 40
3.0
 40
3.0
 40
4.0
 40
4.0
 40
4.0
 40
5.0
 40
5.0
 40
5.0
 40
6.0
 40
6.0
 40
6.0
 40
7.0
 40
7.0
 40
7.0
 40
8.0
 40
8.0
 40
8.0
 40
9.0
 40
9.0
 40
9.0
 40
10.0
 40
10.0
 40
10.0
 40
11.0
 40
11.0
 40
11.0
 40
12.0
 40
12.0
 40
12.0
 40
13.0
 40
13.0
 40
13.0
 40
14.0
 40
14.0
 40
14.0
 40
15.0
 40
15.0
 40
15.0
 40
16.0
 40
16.0
 40
16.0
 40
17.0
 40
17.0
 40
17.0
 40
18.0
 40
18.0
 40
18.0
 40
19.0
 40
19.0
 40
19.0
 40
20.0
 40
20.0
 40
20.0
 40
20.0
 10
107.3492461380862
 20
151.3300531357767
 30
0.0
 10
107.3492461380862
 20
151.126792368057
 30
0.0
 10
107.3492461380862
 20
144.6699901500852
 30
0.0
 10
107.3492461380862
 20
144.6699901500852
 30
0.0
 10
107.3492461380862
 20
144.6699901500852
 30
0.0
 10
107.7023686582773
 20
144.6699901500852
 30
0.0
 10
107.7023686582773
 20
144.6699901500852
 30
0.0
 10
107.7023686582773
 20
144.6699901500852
 30
0.0
 10
107.7023686582773
 20
151.3259190184672
 30
0.0
 10
107.7023686582773
 20
151.6831756559678
 30
0.0
 10
107.7023686582773
 20
152.0407768032442
 30
0.0
 10
107.7023686582773
 20
152.0407768032442
 30
0.0
 10
107.3492461380862
 20
152.0407768032442
 30
0.0
 10
107.1814698772735
 20
152.0407768032442
 30
0.0
 10
106.5964922779716
 20
152.0366426859347
 30
0.0
 10
106.2437142675563
 20
152.0366426859347
 30
0.0
 10
105.890936257141
 20
152.0366426859347
 30
0.0
 10
105.890936257141
 20
152.0366426859347
 30
0.0
 10
105.890936257141
 20
151.6831756559678
 30
0.0
 10
105.890936257141
 20
151.3638150938047
 30
0.0
 10
105.8902472375894
 20
146.9003464385896
 30
0.0
 10
105.8902472375894
 20
146.5492909770533
 30
0.0
 10
105.8902472375894
 20
146.198235515517
 30
0.0
 10
105.8895582180378
 20
146.2185615922889
 30
0.0
 10
105.5374692271742
 20
146.1958239470864
 30
0.0
 10
100.1028275139896
 20
145.8430459366711
 30
0.0
 10
105.5374692271742
 20
146.1958239470864
 30
0.0
 10
100.1028275139896
 20
145.8430459366711
 30
0.0
 10
100.1028275139896
 20
145.8430459366711
 30
0.0
 10
99.75073852312592
 20
145.3267980376406
 30
0.0
 10
99.75073852312592
 20
145.3267980376406
 30
0.0
 10
99.75073852312592
 20
145.2451492207769
 30
0.0
 10
99.75073852312592
 20
144.9929680648941
 30
0.0
 10
99.75073852312592
 20
144.9240661097349
 30
0.0
 10
99.8964661582877
 20
144.9240661097349
 30
0.0
 10
99.96915772098069
 20
144.9240661097349
 30
0.0
 10
100.1090286899539
 20
144.9240661097349
 30
0.0
 10
100.1152298659183
 20
145.1483419737782
 30
0.0
 10
100.1100622192813
 20
145.1884773626584
 30
0.0
 10
100.1100622192813
 20
145.1884773626584
 30
0.0
 10
100.1100622192813
 20
145.4366966561196
 30
0.0
 10
100.1634612345297
 20
145.4699418494839
 30
0.0
 10
100.499358265931
 20
145.491818220247
 30
0.0
 10
105.8902472375894
 20
145.8427014268953
 30
0.0
 10
101.2820844765399
 20
145.5524519407871
 30
0.0
 10
105.8902472375894
 20
145.8427014268953
 30
0.0
 10
106.2430252480047
 20
145.8649223074342
 30
0.0
 10
106.2437142675563
 20
145.8427014268953
 30
0.0
 10
106.2437142675563
 20
146.1954794373106
 30
0.0
 10
106.2437142675563
 20
146.4442154954355
 30
0.0
 10
106.2437142675563
 20
150.1569973491908
 30
0.0
 10
106.2437142675563
 20
151.3303976455525
 30
0.0
 10
106.2437142675563
 20
151.6831756559678
 30
0.0
 10
106.2437142675563
 20
151.6831756559678
 30
0.0
 10
106.5937361997652
 20
151.6831756559678
 30
0.0
 10
106.6946775640735
 20
151.6831756559678
 30
0.0
 10
106.2554275999334
 20
151.6831756559678
 30
0.0
 10
106.9988796961015
 20
151.6831756559678
 30
0.0
 10
107.3492461380862
 20
151.6831756559678
 30
0.0
 10
107.3492461380862
 20
151.6831756559678
 30
0.0
 10
107.3492461380862
 20
151.3300531357767
 30
0.0
  0
INSERT
  5
3F
330
1F
100
AcDbEntity
  8
EBENE_5
 62
   250
100
AcDbBlockReference
  2
*U21
 10
0.0
 20
0.0
 30
0.0
1001
ACAD
1002
{
1000
R14_HATCH_DATA
1000
3F
1011
1.0
1021
0.0
1031
0.0
1011
0.0
1021
1.0
1031
0.0
1011
0.0
1021
0.0
1031
1.0
1040
0.0
1010
0.0
1020
0.0
1030
1.0
1000
SOLID
1070
     1
1070
     1
1071
        1
1071
        1
1071
        1
1070
     4
1070
     3
1070
     0
1070
     1
1071
       65
1071
       61
1040
0.0
1040
0.0
1040
0.0
1040
0.0
1040
1.0
1040
1.0
1040
1.0
1040
2.0
1040
2.0
1040
2.0
1040
3.0
1040
3.0
1040
3.0
1040
4.0
1040
4.0
1040
4.0
1040
5.0
1040
5.0
1040
5.0
1040
6.0
1040
6.0
1040
6.0
1040
7.0
1040
7.0
1040
7.0
1040
8.0
1040
8.0
1040
8.0
1040
9.0
1040
9.0
1040
9.0
1040
10.0
1040
10.0
1040
10.0
1040
11.0
1040
11.0
1040
11.0
1040
12.0
1040
12.0
1040
12.0
1040
13.0
1040
13.0
1040
13.0
1040
14.0
1040
14.0
1040
14.0
1040
15.0
1040
15.0
1040
15.0
1040
16.0
1040
16.0
1040
16.0
1040
17.0
1040
17.0
1040
17.0
1040
18.0
1040
18.0
1040
18.0
1040
19.0
1040
19.0
1040
19.0
1040
20.0
1040
20.0
1040
20.0
1040
20.0
1040
107.3492461380862
1040
151.3300531357767
1040
107.3492461380862
1040
151.126792368057
1040
107.3492461380862
1040
144.6699901500852
1040
107.3492461380862
1040
144.6699901500852
1040
107.3492461380862
1040
144.6699901500852
1040
107.7023686582773
1040
144.6699901500852
1040
107.7023686582773
1040
144.6699901500852
1040
107.7023686582773
1040
144.6699901500852
1040
107.7023686582773
1040
151.3259190184672
1040
107.7023686582773
1040
151.6831756559678
1040
107.7023686582773
1040
152.0407768032442
1040
107.7023686582773
1040
152.0407768032442
1040
107.3492461380862
1040
152.0407768032442
1040
107.1814698772735
1040
152.0407768032442
1040
106.5964922779716
1040
152.0366426859347
1040
106.2437142675563
1040
152.0366426859347
1040
105.890936257141
1040
152.0366426859347
1040
105.890936257141
1040
152.0366426859347
1040
105.890936257141
1040
151.6831756559678
1040
105.890936257141
1040
151.3638150938047
1040
105.8902472375894
1040
146.9003464385896
1040
105.8902472375894
1040
146.5492909770533
1040
105.8902472375894
1040
146.198235515517
1040
105.8895582180378
1040
146.2185615922889
1040
105.5374692271742
1040
146.1958239470864
1040
100.1028275139896
1040
145.8430459366711
1040
105.5374692271742
1040
146.1958239470864
1040
100.1028275139896
1040
145.8430459366711
1040
100.1028275139896
1040
145.8430459366711
1040
99.75073852312592
1040
145.3267980376406
1040
99.75073852312592
1040
145.3267980376406
1040
99.75073852312592
1040
145.2451492207769
1040
99.75073852312592
1040
144.9929680648941
1040
99.75073852312592
1040
144.9240661097349
1040
99.8964661582877
1040
144.9240661097349
1040
99.96915772098069
1040
144.9240661097349
1040
100.1090286899539
1040
144.9240661097349
1040
100.1152298659183
1040
145.1483419737782
1040
100.1100622192813
1040
145.1884773626584
1040
100.1100622192813
1040
145.1884773626584
1040
100.1100622192813
1040
145.4366966561196
1040
100.1634612345297
1040
145.4699418494839
1040
100.499358265931
1040
145.491818220247
1040
105.8902472375894
1040
145.8427014268953
1040
101.2820844765399
1040
145.5524519407871
1040
105.8902472375894
1040
145.8427014268953
1040
106.2430252480047
1040
145.8649223074342
1040
106.2437142675563
1040
145.8427014268953
1040
106.2437142675563
1040
146.1954794373106
1040
106.2437142675563
1040
146.4442154954355
1040
106.2437142675563
1040
150.1569973491908
1040
106.2437142675563
1040
151.3303976455525
1040
106.2437142675563
1040
151.6831756559678
1040
106.2437142675563
1040
151.6831756559678
1040
106.5937361997652
1040
151.6831756559678
1040
106.6946775640735
1040
151.6831756559678
1040
106.2554275999334
1040
151.6831756559678
1040
106.9988796961015
1040
151.6831756559678
1040
107.3492461380862
1040
151.6831756559678
1040
107.3492461380862
1040
151.6831756559678
1040
107.3492461380862
1040
151.3300531357767
1071
        0
1070
     2
1070
     1
1071
        0
1002
}
  0
SPLINE
  5
40
330
1F
100
AcDbEntity
  8
EBENE_5
 62
   250
100
AcDbSpline
210
0.0
220
0.0
230
1.0
 70
    24
 71
     3
 72
     8
 73
     4
 74
     0
 42
0.0000000001
 43
0.0000000001
 40
0.0
 40
0.0
 40
0.0
 40
0.0
 40
1.0
 40
1.0
 40
1.0
 40
1.0
 10
106.5461938507053
 20
152.0874578778646
 30
0.0
 10
100.9348186225373
 20
152.0874578778646
 30
0.0
 10
95.32378790414515
 20
152.0874578778646
 30
0.0
 10
89.71137914664976
 20
152.0874578778646
 30
0.0
  0
SPLINE
  5
41
330
1F
100
AcDbEntity
  8
EBENE_5
 62
   250
100
AcDbSpline
210
0.0
220
0.0
230
1.0
 70
    24
 71
     3
 72
     8
 73
     4
 74
     0
 42
0.0000000001
 43
0.0000000001
 40
0.0
 40
0.0
 40
0.0
 40
0.0
 40
1.0
 40
1.0
 40
1.0
 40
1.0
 10
101.1914784055055
 20
145.8997177947896
 30
0.0
 10
99.9495206637603
 20
145.8997177947896
 30
0.0
 10
100.9916627355437
 20
145.8997177947896
 30
0.0
 10
94.87316911740375
 20
145.8997177947896
 30
0.0
  0
SPLINE
  5
42
330
1F
100
AcDbEntity
  8
EBENE_5
 62
   250
100
AcDbSpline
210
0.0
220
0.0
230
1.0
 70
    24
 71
     3
 72
     8
 73
     4
 74
     0
 42
0.0000000001
 43
0.0000000001
 40
0.0
 40
0.0
 40
0.0
 40
0.0
 40
1.0
 40
1.0
 40
1.0
 40
1.0
 10
100.2237504452941
 20
145.3267980376406
 30
0.0
 10
98.30104138657563
 20
145.3267980376406
 30
0.0
 10
97.6922926127438
 20
145.3267980376406
 30
0.0
 10
95.76992806380119
 20
145.3267980376406
 30
0.0
  0
SPLINE
  5
43
330
1F
100
AcDbEntity
  8
EBENE_5
 62
   250
100
AcDbSpline
210
0.0
220
0.0
230
1.0
 70
    24
 71
     3
 72
     8
 73
     4
 74
     0
 42
0.0000000001
 43
0.0000000001
 40
0.0
 40
0.0
 40
0.0
 40
0.0
 40
1.0
 40
1.0
 40
1.0
 40
1.0
 10
100.2099700542622
 20
144.8756624862355
 30
0.0
 10
98.32687961976035
 20
144.8756624862355
 30
0.0
 10
97.73053319785718
 20
144.8756624862355
 30
0.0
 10
95.84778727313112
 20
144.8756624862355
 30
0.0
  0
SPLINE
  5
44
330
1F
100
AcDbEntity
  8
EBENE_5
 62
   250
100
AcDbSpline
210
0.0
220
0.0
230
1.0
 70
    24
 71
     3
 72
     8
 73
     4
 74
     0
 42
0.0000000001
 43
0.0000000001
 40
0.0
 40
0.0
 40
0.0
 40
0.0
 40
1.0
 40
1.0
 40
1.0
 40
1.0
 10
118.969560875691
 20
152.0836682703308
 30
0.0
 10
114.8509465060478
 20
152.0836682703308
 30
0.0
 10
111.4327205105982
 20
152.0836682703308
 30
0.0
 10
108.7162609284454
 20
152.0836682703308
 30
0.0
  0
SPLINE
  5
45
330
1F
100
AcDbEntity
  8
EBENE_5
 62
   250
100
AcDbSpline
210
0.0
220
0.0
230
1.0
 70
    24
 71
     3
 72
     8
 73
     4
 74
     0
 42
0.0000000001
 43
0.0000000001
 40
0.0
 40
0.0
 40
0.0
 40
0.0
 40
1.0
 40
1.0
 40
1.0
 40
1.0
 10
81.62228961095572
 20
152.0912474853984
 30
0.0
 10
80.57429087298377
 20
152.0912474853984
 30
0.0
 10
79.70474819887424
 20
152.0912474853984
 30
0.0
 10
79.01331707885133
 20
152.0912474853984
 30
0.0
  0
SPLINE
  5
46
330
1F
100
AcDbEntity
  8
EBENE_5
 62
   250
100
AcDbSpline
210
0.0
220
0.0
230
1.0
 70
     8
 71
     3
 72
     8
 73
     4
 74
     0
 42
0.0000000001
 43
0.0000000001
 40
0.0
 40
0.0
 40
0.0
 40
0.0
 40
1.0
 40
1.0
 40
1.0
 40
1.0
 10
94.88315990090184
 20
144.8903041517068
 30
0.0
 10
88.52385394948037
 20
144.8882370930521
 30
0.0
 10
83.23459536168178
 20
144.8865145441731
 30
0.0
 10
79.0157286472819
 20
144.884964250182
 30
0.0
  0
SPLINE
  5
47
330
1F
100
AcDbEntity
  8
EBENE_5
 62
   250
100
AcDbSpline
210
0.0
220
0.0
230
1.0
 70
    24
 71
     3
 72
     8
 73
     4
 74
     0
 42
0.0000000001
 43
0.0000000001
 40
0.0
 40
0.0
 40
0.0
 40
0.0
 40
1.0
 40
1.0
 40
1.0
 40
1.0
 10
112.5713253196045
 20
145.907469264745
 30
0.0
 10
111.0237874067281
 20
145.907469264745
 30
0.0
 10
109.7360098648021
 20
145.907469264745
 30
0.0
 10
108.7097152427053
 20
145.907469264745
 30
0.0
  0
SPLINE
  5
48
330
1F
100
AcDbEntity
  8
EBENE_5
 62
   250
100
AcDbSpline
210
0.0
220
0.0
230
1.0
 70
    24
 71
     3
 72
     8
 73
     4
 74
     0
 42
0.0000000001
 43
0.0000000001
 40
0.0
 40
0.0
 40
0.0
 40
0.0
 40
1.0
 40
1.0
 40
1.0
 40
1.0
 10
105.7655346987512
 20
153.0729280915295
 30
0.0
 10
105.7655346987512
 20
154.4747383692441
 30
0.0
 10
105.7655346987512
 20
155.877926686062
 30
0.0
 10
105.7655346987512
 20
157.2807704931039
 30
0.0
  0
SPLINE
  5
49
330
1F
100
AcDbEntity
  8
EBENE_5
 62
   250
100
AcDbSpline
210
0.0
220
0.0
230
1.0
 70
    24
 71
     3
 72
     8
 73
     4
 74
     0
 42
0.0000000001
 43
0.0000000001
 40
0.0
 40
0.0
 40
0.0
 40
0.0
 40
1.0
 40
1.0
 40
1.0
 40
1.0
 10
90.03797441410453
 20
153.0436447605869
 30
0.0
 10
90.03797441410453
 20
154.4568238609027
 30
0.0
 10
90.03797441410453
 20
155.871036490546
 30
0.0
 10
90.03797441410453
 20
157.2859381397409
 30
0.0
  0
SPLINE
  5
4A
330
1F
100
AcDbEntity
  8
EBENE_5
 62
   250
100
AcDbSpline
210
0.0
220
0.0
230
1.0
 70
    24
 71
     3
 72
     8
 73
     4
 74
     0
 42
0.0000000001
 43
0.0000000001
 40
0.0
 40
0.0
 40
0.0
 40
0.0
 40
1.0
 40
1.0
 40
1.0
 40
1.0
 10
107.6145186654493
 20
153.0229741740391
 30
0.0
 10
107.6145186654493
 20
156.0818764733333
 30
0.0
 10
107.6145186654493
 20
158.4531372601383
 30
0.0
 10
107.6145186654493
 20
161.5134175985357
 30
0.0
  0
SPLINE
  5
4B
330
1F
100
AcDbEntity
  8
EBENE_5
 62
   250
100
AcDbSpline
210
0.0
220
0.0
230
1.0
 70
    24
 71
     3
 72
     8
 73
     4
 74
     0
 42
0.0000000001
 43
0.0000000001
 40
0.0
 40
0.0
 40
0.0
 40
0.0
 40
1.0
 40
1.0
 40
1.0
 40
1.0
 10
82.56900247484359
 20
152.9592398655168
 30
0.0
 10
82.56900247484359
 20
155.8004119865078
 30
0.0
 10
82.56900247484359
 20
158.642962146602
 30
0.0
 10
82.56900247484359
 20
161.487579365351
 30
0.0
  0
SPLINE
  5
4C
330
1F
100
AcDbEntity
  8
EBENE_5
 62
   250
100
AcDbSpline
210
0.0
220
0.0
230
1.0
 70
    24
 71
     3
 72
     8
 73
     4
 74
     0
 42
0.0000000001
 43
0.0000000001
 40
0.0
 40
0.0
 40
0.0
 40
0.0
 40
1.0
 40
1.0
 40
1.0
 40
1.0
 10
99.83238733998961
 20
141.5111800158101
 30
0.0
 10
99.83238733998961
 20
142.3190554400521
 30
0.0
 10
99.83238733998961
 20
143.1272753740699
 30
0.0
 10
99.83238733998961
 20
143.9354953080878
 30
0.0
  0
SPLINE
  5
4D
330
1F
100
AcDbEntity
  8
EBENE_5
 62
   250
100
AcDbSpline
210
0.0
220
0.0
230
1.0
 70
    24
 71
     3
 72
     8
 73
     4
 74
     0
 42
0.0000000001
 43
0.0000000001
 40
0.0
 40
0.0
 40
0.0
 40
0.0
 40
1.0
 40
1.0
 40
1.0
 40
1.0
 10
96.16680332551837
 20
141.4905094292623
 30
0.0
 10
96.16680332551837
 20
142.2983848535044
 30
0.0
 10
96.16680332551837
 20
143.106949297298
 30
0.0
 10
96.16680332551837
 20
143.9151692313158
 30
0.0
  0
SPLINE
  5
4E
330
1F
100
AcDbEntity
  8
EBENE_5
 62
   250
100
AcDbSpline
210
0.0
220
0.0
230
1.0
 70
    24
 71
     3
 72
     8
 73
     4
 74
     0
 42
0.0000000001
 43
0.0000000001
 40
0.0
 40
0.0
 40
0.0
 40
0.0
 40
1.0
 40
1.0
 40
1.0
 40
1.0
 10
91.73055094259111
 20
160.7119156051459
 30
0.0
 10
89.06370076815296
 20
160.7119156051459
 30
0.0
 10
86.39719510349062
 20
160.7119156051459
 30
0.0
 10
83.73068943882826
 20
160.7119156051459
 30
0.0
  0
SPLINE
  5
4F
330
1F
100
AcDbEntity
  8
EBENE_5
 62
   250
100
AcDbSpline
210
0.0
220
0.0
230
1.0
 70
    24
 71
     3
 72
     8
 73
     4
 74
     0
 42
0.0000000001
 43
0.0000000001
 40
0.0
 40
0.0
 40
0.0
 40
0.0
 40
1.0
 40
1.0
 40
1.0
 40
1.0
 10
106.4066673915079
 20
160.7119156051459
 30
0.0
 10
103.4566301813653
 20
160.7119156051459
 30
0.0
 10
100.790124516703
 20
160.7119156051459
 30
0.0
 10
98.40680588774505
 20
160.7119156051459
 30
0.0
  0
POLYLINE
  5
50
330
1F
100
AcDbEntity
  8
EBENE_5
100
AcDb2dPolyline
 66
     1
 10
0.0
 20
0.0
 30
0.0
  0
VERTEX
  5
51
330
50
100
AcDbEntity
  8
EBENE_5
100
AcDbVertex
100
AcDb2dVertex
 10
83.96495608636965
 20
161.5172072060694
 30
0.0
  0
VERTEX
  5
52
330
50
100
AcDbEntity
  8
EBENE_5
100
AcDbVertex
100
AcDb2dVertex
 10
82.57864874856588
 20
160.7169109968949
 30
0.0
  0
VERTEX
  5
53
330
50
100
AcDbEntity
  8
EBENE_5
100
AcDbVertex
100
AcDb2dVertex
 10
83.96495608636965
 20
159.9166147877204
 30
0.0
  0
VERTEX
  5
54
330
50
100
AcDbEntity
  8
EBENE_5
100
AcDbVertex
100
AcDb2dVertex
 10
83.96495608636965
 20
161.5172072060694
 30
0.0
  0
SEQEND
  5
55
330
50
100
AcDbEntity
  8
EBENE_5
  0
INSERT
  5
56
330
1F
100
AcDbEntity
  8
EBENE_5
 62
   250
100
AcDbBlockReference
  2
*U22
 10
0.0
 20
0.0
 30
0.0
1001
ACAD
1002
{
1000
R14_HATCH_DATA
1000
56
1011
1.0
1021
0.0
1031
0.0
1011
0.0
1021
1.0
1031
0.0
1011
0.0
1021
0.0
1031
1.0
1040
0.0
1010
0.0
1020
0.0
1030
1.0
1000
SOLID
1070
     1
1070
     1
1071
        1
1071
        1
1071
        3
1070
     1
1040
83.96495608636965
1040
161.5172072060694
1040
82.57864874856588
1040
160.7169109968949
1070
     1
1040
82.57864874856588
1040
160.7169109968949
1040
83.96495608636965
1040
159.9166147877204
1070
     1
1040
83.96495608636965
1040
159.9166147877204
1040
83.96495608636965
1040
161.5172072060694
1071
        0
1070
     2
1070
     1
1071
        0
1002
}
  0
POLYLINE
  5
57
330
1F
100
AcDbEntity
  8
EBENE_5
100
AcDb2dPolyline
 66
     1
 10
0.0
 20
0.0
 30
0.0
  0
VERTEX
  5
58
330
57
100
AcDbEntity
  8
EBENE_5
100
AcDbVertex
100
AcDb2dVertex
 10
105.9949782094315
 20
159.914030964402
 30
0.0
  0
VERTEX
  5
59
330
57
100
AcDbEntity
  8
EBENE_5
100
AcDbVertex
100
AcDb2dVertex
 10
107.5297692606034
 20
160.7143271735765
 30
0.0
  0
VERTEX
  5
5A
330
57
100
AcDbEntity
  8
EBENE_5
100
AcDbVertex
100
AcDb2dVertex
 10
105.9949782094315
 20
161.514623382751
 30
0.0
  0
VERTEX
  5
5B
330
57
100
AcDbEntity
  8
EBENE_5
100
AcDbVertex
100
AcDb2dVertex
 10
105.9949782094315
 20
159.914030964402
 30
0.0
  0
SEQEND
  5
5C
330
57
100
AcDbEntity
  8
EBENE_5
  0
INSERT
  5
5D
330
1F
100
AcDbEntity
  8
EBENE_5
 62
   250
100
AcDbBlockReference
  2
*U23
 10
0.0
 20
0.0
 30
0.0
1001
ACAD
1002
{
1000
R14_HATCH_DATA
1000
5D
1011
1.0
1021
0.0
1031
0.0
1011
0.0
1021
1.0
1031
0.0
1011
0.0
1021
0.0
1031
1.0
1040
0.0
1010
0.0
1020
0.0
1030
1.0
1000
SOLID
1070
     1
1070
     1
1071
        1
1071
        1
1071
        3
1070
     1
1040
105.9949782094315
1040
159.914030964402
1040
107.5297692606034
1040
160.7143271735765
1070
     1
1040
107.5297692606034
1040
160.7143271735765
1040
105.9949782094315
1040
161.514623382751
1070
     1
1040
105.9949782094315
1040
161.514623382751
1040
105.9949782094315
1040
159.914030964402
1071
        0
1070
     2
1070
     1
1071
        0
1002
}
  0
INSERT
  5
5F
330
1F
100
AcDbEntity
  8
EBENE_5
100
AcDbBlockReference
  2
BLOCK_2
 10
0.0
 20
0.0
 30
0.0
  0
MTEXT
  5
66
330
1F
100
AcDbEntity
  8
EBENE_5
 62
   250
100
AcDbMText
 10
92.80817752128152
 20
159.8149844038606
 30
0.0
 40
1.679223329576718
 41
0.0
 71
     7
 72
     1
  1
\fFutura Book|b0|i0|c0|p34;\W1;500
  0
INSERT
  5
68
330
1F
100
AcDbEntity
  8
EBENE_5
100
AcDbBlockReference
  2
BLOCK_3
 10
0.0
 20
0.0
 30
0.0
  0
INSERT
  5
74
330
1F
100
AcDbEntity
  8
EBENE_5
100
AcDbBlockReference
  2
BLOCK_4
 10
0.0
 20
0.0
 30
0.0
  0
MTEXT
  5
7F
330
1F
100
AcDbEntity
  8
EBENE_5
 62
   250
100
AcDbMText
 10
95.7409892426343
 20
155.7098059154734
 30
0.0
 40
1.679223329576718
 41
0.0
 71
     7
 72
     1
  1
\fFutura Book|b0|i0|c0|p34;\W1;300
  0
MTEXT
  5
80
330
1F
100
AcDbEntity
  8
EBENE_5
 62
   250
100
AcDbMText
 10
78.03973245245135
 20
147.4898026649768
 30
0.0
 40
1.679223329576718
 41
0.0
 71
     7
 72
     1
  1
\fFutura Book|b0|i0|c0|p34;\W1;115
  0
MTEXT
  5
81
330
1F
100
AcDbEntity
  8
EBENE_5
 62
   250
100
AcDbMText
 10
96.55885545037441
 20
141.2831145442331
 30
0.0
 40
1.679223329576718
 41
0.0
 71
     7
 72
     1
  1
\fFutura Book|b0|i0|c0|p34;\W1;46
  0
SPLINE
  5
82
330
1F
100
AcDbEntity
  8
EBENE_5
 62
   250
100
AcDbSpline
210
0.0
220
0.0
230
1.0
 70
    24
 71
     3
 72
     8
 73
     4
 74
     0
 42
0.0000000001
 43
0.0000000001
 40
0.0
 40
0.0
 40
0.0
 40
0.0
 40
1.0
 40
1.0
 40
1.0
 40
1.0
 10
103.2705949024354
 20
142.510258365619
 30
0.0
 10
102.7042208310265
 20
142.510258365619
 30
0.0
 10
102.137157740066
 20
142.510258365619
 30
0.0
 10
101.5704391588813
 20
142.510258365619
 30
0.0
  0
SPLINE
  5
83
330
1F
100
AcDbEntity
  8
EBENE_5
 62
   250
100
AcDbSpline
210
0.0
220
0.0
230
1.0
 70
    24
 71
     3
 72
     8
 73
     4
 74
     0
 42
0.0000000001
 43
0.0000000001
 40
0.0
 40
0.0
 40
0.0
 40
0.0
 40
1.0
 40
1.0
 40
1.0
 40
1.0
 10
94.25615210895282
 20
142.5233497370993
 30
0.0
 10
93.68943352776812
 20
142.5233497370993
 30
0.0
 10
93.12271494658341
 20
142.5233497370993
 30
0.0
 10
92.55599636539873
 20
142.5233497370993
 30
0.0
  0
POLYLINE
  5
84
330
1F
100
AcDbEntity
  8
EBENE_5
100
AcDb2dPolyline
 66
     1
 10
0.0
 20
0.0
 30
0.0
  0
VERTEX
  5
85
330
84
100
AcDbEntity
  8
EBENE_5
100
AcDbVertex
100
AcDb2dVertex
 10
101.5876646476711
 20
143.3133106529999
 30
0.0
  0
VERTEX
  5
86
330
84
100
AcDbEntity
  8
EBENE_5
100
AcDbVertex
100
AcDb2dVertex
 10
100.2013573098673
 20
142.5130144438254
 30
0.0
  0
VERTEX
  5
87
330
84
100
AcDbEntity
  8
EBENE_5
100
AcDbVertex
100
AcDb2dVertex
 10
101.5876646476711
 20
141.7127182346509
 30
0.0
  0
VERTEX
  5
88
330
84
100
AcDbEntity
  8
EBENE_5
100
AcDbVertex
100
AcDb2dVertex
 10
101.5876646476711
 20
143.3133106529999
 30
0.0
  0
SEQEND
  5
89
330
84
100
AcDbEntity
  8
EBENE_5
  0
INSERT
  5
8A
330
1F
100
AcDbEntity
  8
EBENE_5
 62
   250
100
AcDbBlockReference
  2
*U24
 10
0.0
 20
0.0
 30
0.0
1001
ACAD
1002
{
1000
R14_HATCH_DATA
1000
8A
1011
1.0
1021
0.0
1031
0.0
1011
0.0
1021
1.0
1031
0.0
1011
0.0
1021
0.0
1031
1.0
1040
0.0
1010
0.0
1020
0.0
1030
1.0
1000
SOLID
1070
     1
1070
     1
1071
        1
1071
        1
1071
        3
1070
     1
1040
101.5876646476711
1040
143.3133106529999
1040
100.2013573098673
1040
142.5130144438254
1070
     1
1040
100.2013573098673
1040
142.5130144438254
1040
101.5876646476711
1040
141.7127182346509
1070
     1
1040
101.5876646476711
1040
141.7127182346509
1040
101.5876646476711
1040
143.3133106529999
1071
        0
1070
     2
1070
     1
1071
        0
1002
}
  0
POLYLINE
  5
8B
330
1F
100
AcDbEntity
  8
EBENE_5
100
AcDb2dPolyline
 66
     1
 10
0.0
 20
0.0
 30
0.0
  0
VERTEX
  5
8C
330
8B
100
AcDbEntity
  8
EBENE_5
100
AcDbVertex
100
AcDb2dVertex
 10
94.22101211182161
 20
141.7206419594942
 30
0.0
  0
VERTEX
  5
8D
330
8B
100
AcDbEntity
  8
EBENE_5
100
AcDbVertex
100
AcDb2dVertex
 10
95.75614767276933
 20
142.5209381686687
 30
0.0
  0
VERTEX
  5
8E
330
8B
100
AcDbEntity
  8
EBENE_5
100
AcDbVertex
100
AcDb2dVertex
 10
94.22101211182161
 20
143.3212343778432
 30
0.0
  0
VERTEX
  5
8F
330
8B
100
AcDbEntity
  8
EBENE_5
100
AcDbVertex
100
AcDb2dVertex
 10
94.22101211182161
 20
141.7206419594942
 30
0.0
  0
SEQEND
  5
90
330
8B
100
AcDbEntity
  8
EBENE_5
  0
INSERT
  5
91
330
1F
100
AcDbEntity
  8
EBENE_5
 62
   250
100
AcDbBlockReference
  2
*U25
 10
0.0
 20
0.0
 30
0.0
1001
ACAD
1002
{
1000
R14_HATCH_DATA
1000
91
1011
1.0
1021
0.0
1031
0.0
1011
0.0
1021
1.0
1031
0.0
1011
0.0
1021
0.0
1031
1.0
1040
0.0
1010
0.0
1020
0.0
1030
1.0
1000
SOLID
1070
     1
1070
     1
1071
        1
1071
        1
1071
        3
1070
     1
1040
94.22101211182161
1040
141.7206419594942
1040
95.75614767276933
1040
142.5209381686687
1070
     1
1040
95.75614767276933
1040
142.5209381686687
1040
94.22101211182161
1040
143.3212343778432
1070
     1
1040
94.22101211182161
1040
143.3212343778432
1040
94.22101211182161
1040
141.7206419594942
1071
        0
1070
     2
1070
     1
1071
        0
1002
}
  0
SPLINE
  5
92
330
1F
100
AcDbEntity
  8
EBENE_5
 62
   250
100
AcDbSpline
210
0.0
220
0.0
230
1.0
 70
    24
 71
     3
 72
     8
 73
     4
 74
     0
 42
0.0000000001
 43
0.0000000001
 40
0.0
 40
0.0
 40
0.0
 40
0.0
 40
1.0
 40
1.0
 40
1.0
 40
1.0
 10
79.89491759511372
 20
147.1949022968953
 30
0.0
 10
79.89491759511372
 20
146.6998417490762
 30
0.0
 10
79.89491759511372
 20
146.8207646803807
 30
0.0
 10
79.89491759511372
 20
146.3258763874495
 30
0.0
  0
POLYLINE
  5
93
330
1F
100
AcDbEntity
  8
EBENE_5
100
AcDb2dPolyline
 66
     1
 10
0.0
 20
0.0
 30
0.0
  0
VERTEX
  5
94
330
93
100
AcDbEntity
  8
EBENE_5
100
AcDbVertex
100
AcDb2dVertex
 10
79.09496589571502
 20
146.3878881470928
 30
0.0
  0
VERTEX
  5
95
330
93
100
AcDbEntity
  8
EBENE_5
100
AcDbVertex
100
AcDb2dVertex
 10
79.89491759511372
 20
145.001580809289
 30
0.0
  0
VERTEX
  5
96
330
93
100
AcDbEntity
  8
EBENE_5
100
AcDbVertex
100
AcDb2dVertex
 10
80.69555831406402
 20
146.3878881470928
 30
0.0
  0
VERTEX
  5
97
330
93
100
AcDbEntity
  8
EBENE_5
100
AcDbVertex
100
AcDb2dVertex
 10
79.09496589571502
 20
146.3878881470928
 30
0.0
  0
SEQEND
  5
98
330
93
100
AcDbEntity
  8
EBENE_5
  0
INSERT
  5
99
330
1F
100
AcDbEntity
  8
EBENE_5
 62
   250
100
AcDbBlockReference
  2
*U26
 10
0.0
 20
0.0
 30
0.0
1001
ACAD
1002
{
1000
R14_HATCH_DATA
1000
99
1011
1.0
1021
0.0
1031
0.0
1011
0.0
1021
1.0
1031
0.0
1011
0.0
1021
0.0
1031
1.0
1040
0.0
1010
0.0
1020
0.0
1030
1.0
1000
SOLID
1070
     1
1070
     1
1071
        1
1071
        1
1071
        3
1070
     1
1040
79.09496589571502
1040
146.3878881470928
1040
79.89491759511372
1040
145.001580809289
1070
     1
1040
79.89491759511372
1040
145.001580809289
1040
80.69555831406402
1040
146.3878881470928
1070
     1
1040
80.69555831406402
1040
146.3878881470928
1040
79.09496589571502
1040
146.3878881470928
1071
        0
1070
     2
1070
     1
1071
        0
1002
}
  0
SPLINE
  5
9A
330
1F
100
AcDbEntity
  8
EBENE_5
 62
   250
100
AcDbSpline
210
0.0
220
0.0
230
1.0
 70
    24
 71
     3
 72
     8
 73
     4
 74
     0
 42
0.0000000001
 43
0.0000000001
 40
0.0
 40
0.0
 40
0.0
 40
0.0
 40
1.0
 40
1.0
 40
1.0
 40
1.0
 10
79.78191838865257
 20
150.8754724866137
 30
0.0
 10
79.78191838865257
 20
150.5309627108175
 30
0.0
 10
79.78191838865257
 20
150.1862806801335
 30
0.0
 10
79.78191838865257
 20
149.8415986494494
 30
0.0
  0
POLYLINE
  5
9B
330
1F
100
AcDbEntity
  8
EBENE_5
100
AcDb2dPolyline
 66
     1
 10
0.0
 20
0.0
 30
0.0
  0
VERTEX
  5
9C
330
9B
100
AcDbEntity
  8
EBENE_5
100
AcDbVertex
100
AcDb2dVertex
 10
80.58255910760288
 20
150.6413780939602
 30
0.0
  0
VERTEX
  5
9D
330
9B
100
AcDbEntity
  8
EBENE_5
100
AcDbVertex
100
AcDb2dVertex
 10
79.78260740820417
 20
152.027685431764
 30
0.0
  0
VERTEX
  5
9E
330
9B
100
AcDbEntity
  8
EBENE_5
100
AcDbVertex
100
AcDb2dVertex
 10
78.98196668925388
 20
150.6413780939602
 30
0.0
  0
VERTEX
  5
9F
330
9B
100
AcDbEntity
  8
EBENE_5
100
AcDbVertex
100
AcDb2dVertex
 10
80.58255910760288
 20
150.6413780939602
 30
0.0
  0
SEQEND
  5
A0
330
9B
100
AcDbEntity
  8
EBENE_5
  0
INSERT
  5
A1
330
1F
100
AcDbEntity
  8
EBENE_5
 62
   250
100
AcDbBlockReference
  2
*U27
 10
0.0
 20
0.0
 30
0.0
1001
ACAD
1002
{
1000
R14_HATCH_DATA
1000
A1
1011
1.0
1021
0.0
1031
0.0
1011
0.0
1021
1.0
1031
0.0
1011
0.0
1021
0.0
1031
1.0
1040
0.0
1010
0.0
1020
0.0
1030
1.0
1000
SOLID
1070
     1
1070
     1
1071
        1
1071
        1
1071
        3
1070
     1
1040
80.58255910760288
1040
150.6413780939602
1040
79.78260740820417
1040
152.027685431764
1070
     1
1040
79.78260740820417
1040
152.027685431764
1040
78.98196668925388
1040
150.6413780939602
1070
     1
1040
78.98196668925388
1040
150.6413780939602
1040
80.58255910760288
1040
150.6413780939602
1071
        0
1070
     2
1070
     1
1071
        0
1002
}
  0
SPLINE
  5
A2
330
1F
100
AcDbEntity
  8
EBENE_5
 62
   250
100
AcDbSpline
210
0.0
220
0.0
230
1.0
 70
    24
 71
     3
 72
     8
 73
     4
 74
     0
 42
0.0000000001
 43
0.0000000001
 40
0.0
 40
0.0
 40
0.0
 40
0.0
 40
1.0
 40
1.0
 40
1.0
 40
1.0
 10
118.9761065614311
 20
144.6124570175272
 30
0.0
 10
114.8585257211153
 20
144.6124570175272
 30
0.0
 10
111.434787569253
 20
144.6124570175272
 30
0.0
 10
108.703514066741
 20
144.6124570175272
 30
0.0
  0
MTEXT
  5
A3
330
1F
100
AcDbEntity
  8
EBENE_5
 62
   250
100
AcDbMText
 10
116.3812589301344
 20
147.4091873774405
 30
0.0
 40
1.679223329576718
 41
0.0
 71
     7
 72
     1
  1
\fFutura Book|b0|i0|c0|p34;\W1;120
  0
SPLINE
  5
A4
330
1F
100
AcDbEntity
  8
EBENE_5
 62
   250
100
AcDbSpline
210
0.0
220
0.0
230
1.0
 70
    24
 71
     3
 72
     8
 73
     4
 74
     0
 42
0.0000000001
 43
0.0000000001
 40
0.0
 40
0.0
 40
0.0
 40
0.0
 40
1.0
 40
1.0
 40
1.0
 40
1.0
 10
118.1754658424808
 20
146.9341083966176
 30
0.0
 10
118.1754658424808
 20
146.4390478487985
 30
0.0
 10
118.1754658424808
 20
146.5601430349909
 30
0.0
 10
118.1754658424808
 20
146.0650824871718
 30
0.0
  0
POLYLINE
  5
A5
330
1F
100
AcDbEntity
  8
EBENE_5
100
AcDb2dPolyline
 66
     1
 10
0.0
 20
0.0
 30
0.0
  0
VERTEX
  5
A6
330
A5
100
AcDbEntity
  8
EBENE_5
100
AcDbVertex
100
AcDb2dVertex
 10
117.3755141430821
 20
146.0807576819705
 30
0.0
  0
VERTEX
  5
A7
330
A5
100
AcDbEntity
  8
EBENE_5
100
AcDbVertex
100
AcDb2dVertex
 10
118.1754658424808
 20
144.6944503441667
 30
0.0
  0
VERTEX
  5
A8
330
A5
100
AcDbEntity
  8
EBENE_5
100
AcDbVertex
100
AcDb2dVertex
 10
118.9761065614311
 20
146.0807576819705
 30
0.0
  0
VERTEX
  5
A9
330
A5
100
AcDbEntity
  8
EBENE_5
100
AcDbVertex
100
AcDb2dVertex
 10
117.3755141430821
 20
146.0807576819705
 30
0.0
  0
SEQEND
  5
AA
330
A5
100
AcDbEntity
  8
EBENE_5
  0
INSERT
  5
AB
330
1F
100
AcDbEntity
  8
EBENE_5
 62
   250
100
AcDbBlockReference
  2
*U28
 10
0.0
 20
0.0
 30
0.0
1001
ACAD
1002
{
1000
R14_HATCH_DATA
1000
AB
1011
1.0
1021
0.0
1031
0.0
1011
0.0
1021
1.0
1031
0.0
1011
0.0
1021
0.0
1031
1.0
1040
0.0
1010
0.0
1020
0.0
1030
1.0
1000
SOLID
1070
     1
1070
     1
1071
        1
1071
        1
1071
        3
1070
     1
1040
117.3755141430821
1040
146.0807576819705
1040
118.1754658424808
1040
144.6944503441667
1070
     1
1040
118.1754658424808
1040
144.6944503441667
1040
118.9761065614311
1040
146.0807576819705
1070
     1
1040
118.9761065614311
1040
146.0807576819705
1040
117.3755141430821
1040
146.0807576819705
1071
        0
1070
     2
1070
     1
1071
        0
1002
}
  0
SPLINE
  5
AC
330
1F
100
AcDbEntity
  8
EBENE_5
 62
   250
100
AcDbSpline
210
0.0
220
0.0
230
1.0
 70
    24
 71
     3
 72
     8
 73
     4
 74
     0
 42
0.0000000001
 43
0.0000000001
 40
0.0
 40
0.0
 40
0.0
 40
0.0
 40
1.0
 40
1.0
 40
1.0
 40
1.0
 10
112.0828104575256
 20
150.8260353337869
 30
0.0
 10
112.0828104575256
 20
150.4815255579908
 30
0.0
 10
112.0828104575256
 20
150.1368435273067
 30
0.0
 10
112.0828104575256
 20
149.7921614966226
 30
0.0
  0
POLYLINE
  5
AD
330
1F
100
AcDbEntity
  8
EBENE_5
100
AcDb2dPolyline
 66
     1
 10
0.0
 20
0.0
 30
0.0
  0
VERTEX
  5
AE
330
AD
100
AcDbEntity
  8
EBENE_5
100
AcDbVertex
100
AcDb2dVertex
 10
112.8855182351306
 20
150.5919409411334
 30
0.0
  0
VERTEX
  5
AF
330
AD
100
AcDbEntity
  8
EBENE_5
100
AcDbVertex
100
AcDb2dVertex
 10
112.0855665357319
 20
151.9782482789372
 30
0.0
  0
VERTEX
  5
B0
330
AD
100
AcDbEntity
  8
EBENE_5
100
AcDbVertex
100
AcDb2dVertex
 10
111.2849258167817
 20
150.5919409411334
 30
0.0
  0
VERTEX
  5
B1
330
AD
100
AcDbEntity
  8
EBENE_5
100
AcDbVertex
100
AcDb2dVertex
 10
112.8855182351306
 20
150.5919409411334
 30
0.0
  0
SEQEND
  5
B2
330
AD
100
AcDbEntity
  8
EBENE_5
  0
INSERT
  5
B3
330
1F
100
AcDbEntity
  8
EBENE_5
 62
   250
100
AcDbBlockReference
  2
*U29
 10
0.0
 20
0.0
 30
0.0
1001
ACAD
1002
{
1000
R14_HATCH_DATA
1000
B3
1011
1.0
1021
0.0
1031
0.0
1011
0.0
1021
1.0
1031
0.0
1011
0.0
1021
0.0
1031
1.0
1040
0.0
1010
0.0
1020
0.0
1030
1.0
1000
SOLID
1070
     1
1070
     1
1071
        1
1071
        1
1071
        3
1070
     1
1040
112.8855182351306
1040
150.5919409411334
1040
112.0855665357319
1040
151.9782482789372
1070
     1
1040
112.0855665357319
1040
151.9782482789372
1040
111.2849258167817
1040
150.5919409411334
1070
     1
1040
111.2849258167817
1040
150.5919409411334
1040
112.8855182351306
1040
150.5919409411334
1071
        0
1070
     2
1070
     1
1071
        0
1002
}
  0
MTEXT
  5
B4
330
1F
100
AcDbEntity
  8
EBENE_5
 62
   250
100
AcDbMText
 10
112.7370345217625
 20
148.2180963310099
 30
0.0
 40
1.679223329576718
 41
0.0
 71
     7
 72
     1
  1
\fFutura Book|b0|i0|c0|p34;\W1;95
  0
SPLINE
  5
B5
330
1F
100
AcDbEntity
  8
EBENE_5
 62
   250
100
AcDbSpline
210
0.0
220
0.0
230
1.0
 70
    24
 71
     3
 72
     8
 73
     4
 74
     0
 42
0.0000000001
 43
0.0000000001
 40
0.0
 40
0.0
 40
0.0
 40
0.0
 40
1.0
 40
1.0
 40
1.0
 40
1.0
 10
112.0876335943867
 20
148.152122708945
 30
0.0
 10
112.0876335943867
 20
147.6570621611259
 30
0.0
 10
112.0876335943867
 20
147.7779850924303
 30
0.0
 10
112.0876335943867
 20
147.2829245446112
 30
0.0
  0
POLYLINE
  5
B6
330
1F
100
AcDbEntity
  8
EBENE_5
100
AcDb2dPolyline
 66
     1
 10
0.0
 20
0.0
 30
0.0
  0
VERTEX
  5
B7
330
B6
100
AcDbEntity
  8
EBENE_5
100
AcDbVertex
100
AcDb2dVertex
 10
111.287681894988
 20
147.3869664969017
 30
0.0
  0
VERTEX
  5
B8
330
B6
100
AcDbEntity
  8
EBENE_5
100
AcDbVertex
100
AcDb2dVertex
 10
112.0876335943867
 20
146.0006591590979
 30
0.0
  0
VERTEX
  5
B9
330
B6
100
AcDbEntity
  8
EBENE_5
100
AcDbVertex
100
AcDb2dVertex
 10
112.888274313337
 20
147.3869664969017
 30
0.0
  0
VERTEX
  5
BA
330
B6
100
AcDbEntity
  8
EBENE_5
100
AcDbVertex
100
AcDb2dVertex
 10
111.287681894988
 20
147.3869664969017
 30
0.0
  0
SEQEND
  5
BB
330
B6
100
AcDbEntity
  8
EBENE_5
  0
INSERT
  5
BC
330
1F
100
AcDbEntity
  8
EBENE_5
 62
   250
100
AcDbBlockReference
  2
*U30
 10
0.0
 20
0.0
 30
0.0
1001
ACAD
1002
{
1000
R14_HATCH_DATA
1000
BC
1011
1.0
1021
0.0
1031
0.0
1011
0.0
1021
1.0
1031
0.0
1011
0.0
1021
0.0
1031
1.0
1040
0.0
1010
0.0
1020
0.0
1030
1.0
1000
SOLID
1070
     1
1070
     1
1071
        1
1071
        1
1071
        3
1070
     1
1040
111.287681894988
1040
147.3869664969017
1040
112.0876335943867
1040
146.0006591590979
1070
     1
1040
112.0876335943867
1040
146.0006591590979
1040
112.888274313337
1040
147.3869664969017
1070
     1
1040
112.888274313337
1040
147.3869664969017
1040
111.287681894988
1040
147.3869664969017
1071
        0
1070
     2
1070
     1
1071
        0
1002
}
  0
SPLINE
  5
BD
330
1F
100
AcDbEntity
  8
EBENE_5
 62
   250
100
AcDbSpline
210
0.0
220
0.0
230
1.0
 70
    24
 71
     3
 72
     8
 73
     4
 74
     0
 42
0.0000000001
 43
0.0000000001
 40
0.0
 40
0.0
 40
0.0
 40
0.0
 40
1.0
 40
1.0
 40
1.0
 40
1.0
 10
118.1558287852604
 20
150.8248295495716
 30
0.0
 10
118.1558287852604
 20
150.4804920286634
 30
0.0
 10
118.1558287852604
 20
150.136326762643
 30
0.0
 10
118.1558287852604
 20
149.7921614966226
 30
0.0
  0
POLYLINE
  5
BE
330
1F
100
AcDbEntity
  8
EBENE_5
100
AcDb2dPolyline
 66
     1
 10
0.0
 20
0.0
 30
0.0
  0
VERTEX
  5
BF
330
BE
100
AcDbEntity
  8
EBENE_5
100
AcDbVertex
100
AcDb2dVertex
 10
118.9585365628655
 20
150.5884958433755
 30
0.0
  0
VERTEX
  5
C0
330
BE
100
AcDbEntity
  8
EBENE_5
100
AcDbVertex
100
AcDb2dVertex
 10
118.1585848634668
 20
151.9748031811793
 30
0.0
  0
VERTEX
  5
C1
330
BE
100
AcDbEntity
  8
EBENE_5
100
AcDbVertex
100
AcDb2dVertex
 10
117.3579441445165
 20
150.5884958433755
 30
0.0
  0
VERTEX
  5
C2
330
BE
100
AcDbEntity
  8
EBENE_5
100
AcDbVertex
100
AcDb2dVertex
 10
118.9585365628655
 20
150.5884958433755
 30
0.0
  0
SEQEND
  5
C3
330
BE
100
AcDbEntity
  8
EBENE_5
  0
INSERT
  5
C4
330
1F
100
AcDbEntity
  8
EBENE_5
 62
   250
100
AcDbBlockReference
  2
*U31
 10
0.0
 20
0.0
 30
0.0
1001
ACAD
1002
{
1000
R14_HATCH_DATA
1000
C4
1011
1.0
1021
0.0
1031
0.0
1011
0.0
1021
1.0
1031
0.0
1011
0.0
1021
0.0
1031
1.0
1040
0.0
1010
0.0
1020
0.0
1030
1.0
1000
SOLID
1070
     1
1070
     1
1071
        1
1071
        1
1071
        3
1070
     1
1040
118.9585365628655
1040
150.5884958433755
1040
118.1585848634668
1040
151.9748031811793
1070
     1
1040
118.1585848634668
1040
151.9748031811793
1040
117.3579441445165
1040
150.5884958433755
1070
     1
1040
117.3579441445165
1040
150.5884958433755
1040
118.9585365628655
1040
150.5884958433755
1071
        0
1070
     2
1070
     1
1071
        0
1002
}
  0
POLYLINE
  5
C6
330
1F
100
AcDbEntity
  8
EBENE_3
  6
AI-LINETYPE-1
 62
   250
100
AcDb2dPolyline
 66
     1
 10
0.0
 20
0.0
 30
0.0
  0
VERTEX
  5
C7
330
C6
100
AcDbEntity
  8
EBENE_3
  6
AI-LINETYPE-1
 62
   250
100
AcDbVertex
100
AcDb2dVertex
 10
134.8940084972052
 20
123.3384615974501
 30
0.0
  0
VERTEX
  5
C8
330
C6
100
AcDbEntity
  8
EBENE_3
  6
AI-LINETYPE-1
 62
   250
100
AcDbVertex
100
AcDb2dVertex
 10
136.5163050314294
 20
123.3384615974501
 30
0.0
  0
SEQEND
  5
C9
330
C6
100
AcDbEntity
  8
EBENE_3
  6
AI-LINETYPE-1
  0
MTEXT
  5
CB
330
1F
100
AcDbEntity
  8
EBENE_3
 62
   250
100
AcDbMText
 10
136.9162808811287
 20
124.3084288712042
 30
0.0
 40
1.679223329576718
 41
0.0
 71
     7
 72
     1
  1
\fFutura Book|b0|i0|c0|p34;\W1;75
  0
POLYLINE
  5
CC
330
1F
100
AcDbEntity
  8
EBENE_3
  6
AI-LINETYPE-2
 62
   250
100
AcDb2dPolyline
 66
     1
 10
0.0
 20
0.0
 30
0.0
  0
VERTEX
  5
CD
330
CC
100
AcDbEntity
  8
EBENE_3
  6
AI-LINETYPE-2
 62
   250
100
AcDbVertex
100
AcDb2dVertex
 10
135.6886202950791
 20
126.2292431261558
 30
0.0
  0
VERTEX
  5
CE
330
CC
100
AcDbEntity
  8
EBENE_3
  6
AI-LINETYPE-2
 62
   250
100
AcDbVertex
100
AcDb2dVertex
 10
135.6886202950791
 20
123.8686621424004
 30
0.0
  0
SEQEND
  5
CF
330
CC
100
AcDbEntity
  8
EBENE_3
  6
AI-LINETYPE-2
  0
POLYLINE
  5
D1
330
1F
100
AcDbEntity
  8
EBENE_3
100
AcDb2dPolyline
 66
     1
 10
0.0
 20
0.0
 30
0.0
  0
VERTEX
  5
D2
330
D1
100
AcDbEntity
  8
EBENE_3
100
AcDbVertex
100
AcDb2dVertex
 10
136.4889165042536
 20
125.6053359221889
 30
0.0
  0
VERTEX
  5
D3
330
D1
100
AcDbEntity
  8
EBENE_3
100
AcDbVertex
100
AcDb2dVertex
 10
135.6886202950791
 20
126.9916432599927
 30
0.0
  0
VERTEX
  5
D4
330
D1
100
AcDbEntity
  8
EBENE_3
100
AcDbVertex
100
AcDb2dVertex
 10
134.8883240859046
 20
125.6053359221889
 30
0.0
  0
VERTEX
  5
D5
330
D1
100
AcDbEntity
  8
EBENE_3
100
AcDbVertex
100
AcDb2dVertex
 10
136.4889165042536
 20
125.6053359221889
 30
0.0
  0
SEQEND
  5
D6
330
D1
100
AcDbEntity
  8
EBENE_3
  0
INSERT
  5
D7
330
1F
100
AcDbEntity
  8
EBENE_3
 62
   250
100
AcDbBlockReference
  2
*U32
 10
0.0
 20
0.0
 30
0.0
1001
ACAD
1002
{
1000
R14_HATCH_DATA
1000
D7
1011
1.0
1021
0.0
1031
0.0
1011
0.0
1021
1.0
1031
0.0
1011
0.0
1021
0.0
1031
1.0
1040
0.0
1010
0.0
1020
0.0
1030
1.0
1000
SOLID
1070
     1
1070
     1
1071
        1
1071
        1
1071
        3
1070
     1
1040
136.4889165042536
1040
125.6053359221889
1040
135.6886202950791
1040
126.9916432599927
1070
     1
1040
135.6886202950791
1040
126.9916432599927
1040
134.8883240859046
1040
125.6053359221889
1070
     1
1040
134.8883240859046
1040
125.6053359221889
1040
136.4889165042536
1040
125.6053359221889
1071
        0
1070
     2
1070
     1
1071
        0
1002
}
  0
POLYLINE
  5
D8
330
1F
100
AcDbEntity
  8
EBENE_3
100
AcDb2dPolyline
 66
     1
 10
0.0
 20
0.0
 30
0.0
  0
VERTEX
  5
D9
330
D8
100
AcDbEntity
  8
EBENE_3
100
AcDbVertex
100
AcDb2dVertex
 10
134.8883240859046
 20
124.7726557940896
 30
0.0
  0
VERTEX
  5
DA
330
D8
100
AcDbEntity
  8
EBENE_3
100
AcDbVertex
100
AcDb2dVertex
 10
135.6886202950791
 20
123.3863484562858
 30
0.0
  0
VERTEX
  5
DB
330
D8
100
AcDbEntity
  8
EBENE_3
100
AcDbVertex
100
AcDb2dVertex
 10
136.4889165042536
 20
124.7726557940896
 30
0.0
  0
VERTEX
  5
DC
330
D8
100
AcDbEntity
  8
EBENE_3
100
AcDbVertex
100
AcDb2dVertex
 10
134.8883240859046
 20
124.7726557940896
 30
0.0
  0
SEQEND
  5
DD
330
D8
100
AcDbEntity
  8
EBENE_3
  0
INSERT
  5
DE
330
1F
100
AcDbEntity
  8
EBENE_3
 62
   250
100
AcDbBlockReference
  2
*U33
 10
0.0
 20
0.0
 30
0.0
1001
ACAD
1002
{
1000
R14_HATCH_DATA
1000
DE
1011
1.0
1021
0.0
1031
0.0
1011
0.0
1021
1.0
1031
0.0
1011
0.0
1021
0.0
1031
1.0
1040
0.0
1010
0.0
1020
0.0
1030
1.0
1000
SOLID
1070
     1
1070
     1
1071
        1
1071
        1
1071
        3
1070
     1
1040
134.8883240859046
1040
124.7726557940896
1040
135.6886202950791
1040
123.3863484562858
1070
     1
1040
135.6886202950791
1040
123.3863484562858
1040
136.4889165042536
1040
124.7726557940896
1070
     1
1040
136.4889165042536
1040
124.7726557940896
1040
134.8883240859046
1040
124.7726557940896
1071
        0
1070
     2
1070
     1
1071
        0
1002
}
  0
POLYLINE
  5
DF
330
1F
100
AcDbEntity
  8
EBENE_3
100
AcDb2dPolyline
 66
     1
 10
0.0
 20
0.0
 30
0.0
  0
VERTEX
  5
E0
330
DF
100
AcDbEntity
  8
EBENE_3
100
AcDbVertex
100
AcDb2dVertex
 10
101.4782827938558
 20
122.6666675346476
 30
0.0
  0
VERTEX
  5
E1
330
DF
100
AcDbEntity
  8
EBENE_3
100
AcDbVertex
100
AcDb2dVertex
 10
99.88475282591062
 20
122.8206634044285
 30
0.0
  0
VERTEX
  5
E2
330
DF
100
AcDbEntity
  8
EBENE_3
100
AcDbVertex
100
AcDb2dVertex
 10
100.548278654094
 20
121.3637315625865
 30
0.0
  0
VERTEX
  5
E3
330
DF
100
AcDbEntity
  8
EBENE_3
100
AcDbVertex
100
AcDb2dVertex
 10
101.4782827938558
 20
122.6666675346476
 30
0.0
  0
SEQEND
  5
E4
330
DF
100
AcDbEntity
  8
EBENE_3
  0
INSERT
  5
E5
330
1F
100
AcDbEntity
  8
EBENE_3
 62
   250
100
AcDbBlockReference
  2
*U34
 10
0.0
 20
0.0
 30
0.0
1001
ACAD
1002
{
1000
R14_HATCH_DATA
1000
E5
1011
1.0
1021
0.0
1031
0.0
1011
0.0
1021
1.0
1031
0.0
1011
0.0
1021
0.0
1031
1.0
1040
0.0
1010
0.0
1020
0.0
1030
1.0
1000
SOLID
1070
     1
1070
     1
1071
        1
1071
        1
1071
        3
1070
     1
1040
101.4782827938558
1040
122.6666675346476
1040
99.88475282591062
1040
122.8206634044285
1070
     1
1040
99.88475282591062
1040
122.8206634044285
1040
100.548278654094
1040
121.3637315625865
1070
     1
1040
100.548278654094
1040
121.3637315625865
1040
101.4782827938558
1040
122.6666675346476
1071
        0
1070
     2
1070
     1
1071
        0
1002
}
  0
MTEXT
  5
E6
330
1F
100
AcDbEntity
  8
EBENE_3
 62
   250
100
AcDbMText
 10
102.0574037269692
 20
121.8768788736349
 30
0.0
 40
1.43933428249433
 41
0.0
 71
     7
 72
     1
  1
\fFuturaT Medium|b0|i0|c0|p34;\W1;\U+00D8\fFuturaBT Light|b0|i0|c0|p34;\H1.19945; \fFutura Book|b0|i0|c0|p34;\H1.67922;35
  0
POLYLINE
  5
E7
330
1F
100
AcDbEntity
  8
EBENE_3
 62
   250
100
AcDb2dPolyline
 66
     1
 10
0.0
 20
0.0
 30
0.0
  0
VERTEX
  5
E8
330
E7
100
AcDbEntity
  8
EBENE_3
 62
   250
100
AcDbVertex
100
AcDb2dVertex
 10
100.3095333794673
 20
122.4468702976896
 30
0.0
  0
VERTEX
  5
E9
330
E7
100
AcDbEntity
  8
EBENE_3
 62
   250
100
AcDbVertex
100
AcDb2dVertex
 10
101.9795445176392
 20
121.3585639159495
 30
0.0
  0
VERTEX
  5
EA
330
E7
100
AcDbEntity
  8
EBENE_3
 62
   250
100
AcDbVertex
100
AcDb2dVertex
 10
106.5489499289117
 20
121.367865679896
 30
0.0
  0
SEQEND
  5
EB
330
E7
100
AcDbEntity
  8
EBENE_3
  0
INSERT
  5
ED
330
1F
100
AcDbEntity
  8
EBENE_3
100
AcDbBlockReference
  2
BLOCK_5
 10
0.0
 20
0.0
 30
0.0
  0
POLYLINE
  5
F4
330
1F
100
AcDbEntity
  8
EBENE_3
100
AcDb2dPolyline
 66
     1
 10
0.0
 20
0.0
 30
0.0
  0
VERTEX
  5
F5
330
F4
100
AcDbEntity
  8
EBENE_3
100
AcDbVertex
100
AcDb2dVertex
 10
79.02106854880674
 20
106.1949661342811
 30
0.0
  0
VERTEX
  5
F6
330
F4
100
AcDbEntity
  8
EBENE_3
100
AcDbVertex
100
AcDb2dVertex
 10
79.82136475798124
 20
104.8086587964774
 30
0.0
  0
VERTEX
  5
F7
330
F4
100
AcDbEntity
  8
EBENE_3
100
AcDbVertex
100
AcDb2dVertex
 10
80.62166096715573
 20
106.1949661342811
 30
0.0
  0
VERTEX
  5
F8
330
F4
100
AcDbEntity
  8
EBENE_3
100
AcDbVertex
100
AcDb2dVertex
 10
79.02106854880674
 20
106.1949661342811
 30
0.0
  0
SEQEND
  5
F9
330
F4
100
AcDbEntity
  8
EBENE_3
  0
INSERT
  5
FA
330
1F
100
AcDbEntity
  8
EBENE_3
 62
   250
100
AcDbBlockReference
  2
*U35
 10
0.0
 20
0.0
 30
0.0
1001
ACAD
1002
{
1000
R14_HATCH_DATA
1000
FA
1011
1.0
1021
0.0
1031
0.0
1011
0.0
1021
1.0
1031
0.0
1011
0.0
1021
0.0
1031
1.0
1040
0.0
1010
0.0
1020
0.0
1030
1.0
1000
SOLID
1070
     1
1070
     1
1071
        1
1071
        1
1071
        3
1070
     1
1040
79.02106854880674
1040
106.1949661342811
1040
79.82136475798124
1040
104.8086587964774
1070
     1
1040
79.82136475798124
1040
104.8086587964774
1040
80.62166096715573
1040
106.1949661342811
1070
     1
1040
80.62166096715573
1040
106.1949661342811
1040
79.02106854880674
1040
106.1949661342811
1071
        0
1070
     2
1070
     1
1071
        0
1002
}
  0
MTEXT
  5
FB
330
1F
100
AcDbEntity
  8
EBENE_3
 62
   250
100
AcDbMText
 10
78.2957032158679
 20
102.6346298563156
 30
0.0
 40
1.679223329576718
 41
0.0
 71
     7
 72
     1
  1
\fFutura Book|b0|i0|c0|p34;\W1;50
  0
INSERT
  5
FD
330
1F
100
AcDbEntity
  8
EBENE_3
100
AcDbBlockReference
  2
BLOCK_6
 10
0.0
 20
0.0
 30
0.0
  0
INSERT
  5
105
330
1F
100
AcDbEntity
  8
EBENE_3
100
AcDbBlockReference
  2
BLOCK_7
 10
0.0
 20
0.0
 30
0.0
  0
SPLINE
  5
10C
330
1F
100
AcDbEntity
  8
EBENE_3
 62
   250
100
AcDbSpline
210
0.0
220
0.0
230
1.0
 70
    24
 71
     3
 72
     8
 73
     4
 74
     0
 42
0.0000000001
 43
0.0000000001
 40
0.0
 40
0.0
 40
0.0
 40
0.0
 40
1.0
 40
1.0
 40
1.0
 40
1.0
 10
79.82136475798124
 20
101.199057620573
 30
0.0
 10
79.82136475798124
 20
100.1131628072635
 30
0.0
 10
79.82136475798124
 20
99.02726799395396
 30
0.0
 10
79.82136475798124
 20
97.94137318064443
 30
0.0
  0
POLYLINE
  5
10D
330
1F
100
AcDbEntity
  8
EBENE_3
100
AcDb2dPolyline
 66
     1
 10
0.0
 20
0.0
 30
0.0
  0
VERTEX
  5
10E
330
10D
100
AcDbEntity
  8
EBENE_3
100
AcDbVertex
100
AcDb2dVertex
 10
80.62424479047421
 20
100.9399862691743
 30
0.0
  0
VERTEX
  5
10F
330
10D
100
AcDbEntity
  8
EBENE_3
100
AcDbVertex
100
AcDb2dVertex
 10
79.82394858129972
 20
102.3262936069781
 30
0.0
  0
VERTEX
  5
110
330
10D
100
AcDbEntity
  8
EBENE_3
100
AcDbVertex
100
AcDb2dVertex
 10
79.02365237212521
 20
100.9399862691743
 30
0.0
  0
VERTEX
  5
111
330
10D
100
AcDbEntity
  8
EBENE_3
100
AcDbVertex
100
AcDb2dVertex
 10
80.62424479047421
 20
100.9399862691743
 30
0.0
  0
SEQEND
  5
112
330
10D
100
AcDbEntity
  8
EBENE_3
  0
INSERT
  5
113
330
1F
100
AcDbEntity
  8
EBENE_3
 62
   250
100
AcDbBlockReference
  2
*U36
 10
0.0
 20
0.0
 30
0.0
1001
ACAD
1002
{
1000
R14_HATCH_DATA
1000
113
1011
1.0
1021
0.0
1031
0.0
1011
0.0
1021
1.0
1031
0.0
1011
0.0
1021
0.0
1031
1.0
1040
0.0
1010
0.0
1020
0.0
1030
1.0
1000
SOLID
1070
     1
1070
     1
1071
        1
1071
        1
1071
        3
1070
     1
1040
80.62424479047421
1040
100.9399862691743
1040
79.82394858129972
1040
102.3262936069781
1070
     1
1040
79.82394858129972
1040
102.3262936069781
1040
79.02365237212521
1040
100.9399862691743
1070
     1
1040
79.02365237212521
1040
100.9399862691743
1040
80.62424479047421
1040
100.9399862691743
1071
        0
1070
     2
1070
     1
1071
        0
1002
}
  0
SPLINE
  5
114
330
1F
100
AcDbEntity
  8
EBENE_3
 62
   250
100
AcDbSpline
210
0.0
220
0.0
230
1.0
 70
    24
 71
     3
 72
     8
 73
     4
 74
     0
 42
0.0000000001
 43
0.0000000001
 40
0.0
 40
0.0
 40
0.0
 40
0.0
 40
1.0
 40
1.0
 40
1.0
 40
1.0
 10
72.9998989423292
 20
131.4561454445352
 30
0.0
 10
72.9998989423292
 20
130.3812749440512
 30
0.0
 10
72.9998989423292
 20
129.3067489533429
 30
0.0
 10
72.9998989423292
 20
128.2322229626347
 30
0.0
  0
POLYLINE
  5
115
330
1F
100
AcDbEntity
  8
EBENE_3
100
AcDb2dPolyline
 66
     1
 10
0.0
 20
0.0
 30
0.0
  0
VERTEX
  5
116
330
115
100
AcDbEntity
  8
EBENE_3
100
AcDbVertex
100
AcDb2dVertex
 10
72.19701890983623
 20
128.4664896101761
 30
0.0
  0
VERTEX
  5
117
330
115
100
AcDbEntity
  8
EBENE_3
100
AcDbVertex
100
AcDb2dVertex
 10
72.99731511901072
 20
127.0801822723723
 30
0.0
  0
VERTEX
  5
118
330
115
100
AcDbEntity
  8
EBENE_3
100
AcDbVertex
100
AcDb2dVertex
 10
73.79761132818523
 20
128.4664896101761
 30
0.0
  0
VERTEX
  5
119
330
115
100
AcDbEntity
  8
EBENE_3
100
AcDbVertex
100
AcDb2dVertex
 10
72.19701890983623
 20
128.4664896101761
 30
0.0
  0
SEQEND
  5
11A
330
115
100
AcDbEntity
  8
EBENE_3
  0
INSERT
  5
11B
330
1F
100
AcDbEntity
  8
EBENE_3
 62
   250
100
AcDbBlockReference
  2
*U37
 10
0.0
 20
0.0
 30
0.0
1001
ACAD
1002
{
1000
R14_HATCH_DATA
1000
11B
1011
1.0
1021
0.0
1031
0.0
1011
0.0
1021
1.0
1031
0.0
1011
0.0
1021
0.0
1031
1.0
1040
0.0
1010
0.0
1020
0.0
1030
1.0
1000
SOLID
1070
     1
1070
     1
1071
        1
1071
        1
1071
        3
1070
     1
1040
72.19701890983623
1040
128.4664896101761
1040
72.99731511901072
1040
127.0801822723723
1070
     1
1040
72.99731511901072
1040
127.0801822723723
1040
73.79761132818523
1040
128.4664896101761
1070
     1
1040
73.79761132818523
1040
128.4664896101761
1040
72.19701890983623
1040
128.4664896101761
1071
        0
1070
     2
1070
     1
1071
        0
1002
}
  0
MTEXT
  5
11C
330
1F
100
AcDbEntity
  8
EBENE_3
 62
   250
100
AcDbMText
 10
70.72113903032543
 20
122.4963074505164
 30
0.0
 40
1.679223329576718
 41
0.0
 71
     7
 72
     1
  1
\fFutura Book|b0|i0|c0|p34;\W1;150
  0
INSERT
  5
11E
330
1F
100
AcDbEntity
  8
EBENE_3
100
AcDbBlockReference
  2
BLOCK_8
 10
0.0
 20
0.0
 30
0.0
  0
INSERT
  5
126
330
1F
100
AcDbEntity
  8
EBENE_3
100
AcDbBlockReference
  2
BLOCK_9
 10
0.0
 20
0.0
 30
0.0
  0
SPLINE
  5
12D
330
1F
100
AcDbEntity
  8
EBENE_3
 62
   250
100
AcDbSpline
210
0.0
220
0.0
230
1.0
 70
    24
 71
     3
 72
     8
 73
     4
 74
     0
 42
0.0000000001
 43
0.0000000001
 40
0.0
 40
0.0
 40
0.0
 40
0.0
 40
1.0
 40
1.0
 40
1.0
 40
1.0
 10
73.00988972582729
 20
118.3058627926197
 30
0.0
 10
73.00988972582729
 20
117.2241020966197
 30
0.0
 10
73.00988972582729
 20
116.1423414006197
 30
0.0
 10
73.00988972582729
 20
115.0605807046198
 30
0.0
  0
POLYLINE
  5
12E
330
1F
100
AcDbEntity
  8
EBENE_3
100
AcDb2dPolyline
 66
     1
 10
0.0
 20
0.0
 30
0.0
  0
VERTEX
  5
12F
330
12E
100
AcDbEntity
  8
EBENE_3
100
AcDbVertex
100
AcDb2dVertex
 10
73.81276975832026
 20
118.0464469314452
 30
0.0
  0
VERTEX
  5
130
330
12E
100
AcDbEntity
  8
EBENE_3
100
AcDbVertex
100
AcDb2dVertex
 10
73.01247354914575
 20
119.4327542692489
 30
0.0
  0
VERTEX
  5
131
330
12E
100
AcDbEntity
  8
EBENE_3
100
AcDbVertex
100
AcDb2dVertex
 10
72.21217733997126
 20
118.0464469314452
 30
0.0
  0
VERTEX
  5
132
330
12E
100
AcDbEntity
  8
EBENE_3
100
AcDbVertex
100
AcDb2dVertex
 10
73.81276975832026
 20
118.0464469314452
 30
0.0
  0
SEQEND
  5
133
330
12E
100
AcDbEntity
  8
EBENE_3
  0
INSERT
  5
134
330
1F
100
AcDbEntity
  8
EBENE_3
 62
   250
100
AcDbBlockReference
  2
*U38
 10
0.0
 20
0.0
 30
0.0
1001
ACAD
1002
{
1000
R14_HATCH_DATA
1000
134
1011
1.0
1021
0.0
1031
0.0
1011
0.0
1021
1.0
1031
0.0
1011
0.0
1021
0.0
1031
1.0
1040
0.0
1010
0.0
1020
0.0
1030
1.0
1000
SOLID
1070
     1
1070
     1
1071
        1
1071
        1
1071
        3
1070
     1
1040
73.81276975832026
1040
118.0464469314452
1040
73.01247354914575
1040
119.4327542692489
1070
     1
1040
73.01247354914575
1040
119.4327542692489
1040
72.21217733997126
1040
118.0464469314452
1070
     1
1040
72.21217733997126
1040
118.0464469314452
1040
73.81276975832026
1040
118.0464469314452
1071
        0
1070
     2
1070
     1
1071
        0
1002
}
  0
MTEXT
  5
135
330
1F
100
AcDbEntity
  8
EBENE_3
 62
   250
100
AcDbMText
 10
112.6822574674109
 20
132.7006870095989
 30
0.0
 40
1.679223329576718
 41
0.0
 71
     7
 72
     1
  1
\fFutura Book|b0|i0|c0|p34;\W1;1200
  0
POLYLINE
  5
136
330
1F
100
AcDbEntity
  8
EBENE_3
100
AcDb2dPolyline
 66
     1
 10
0.0
 20
0.0
 30
0.0
  0
VERTEX
  5
137
330
136
100
AcDbEntity
  8
EBENE_3
100
AcDbVertex
100
AcDb2dVertex
 10
163.5711744893662
 20
103.9131056342952
 30
0.0
  0
VERTEX
  5
138
330
136
100
AcDbEntity
  8
EBENE_3
100
AcDbVertex
100
AcDb2dVertex
 10
164.3718152083165
 20
102.5267982964914
 30
0.0
  0
VERTEX
  5
139
330
136
100
AcDbEntity
  8
EBENE_3
100
AcDbVertex
100
AcDb2dVertex
 10
165.1724559272668
 20
103.9131056342952
 30
0.0
  0
VERTEX
  5
13A
330
136
100
AcDbEntity
  8
EBENE_3
100
AcDbVertex
100
AcDb2dVertex
 10
163.5711744893662
 20
103.9131056342952
 30
0.0
  0
SEQEND
  5
13B
330
136
100
AcDbEntity
  8
EBENE_3
  0
INSERT
  5
13C
330
1F
100
AcDbEntity
  8
EBENE_3
 62
   250
100
AcDbBlockReference
  2
*U39
 10
0.0
 20
0.0
 30
0.0
1001
ACAD
1002
{
1000
R14_HATCH_DATA
1000
13C
1011
1.0
1021
0.0
1031
0.0
1011
0.0
1021
1.0
1031
0.0
1011
0.0
1021
0.0
1031
1.0
1040
0.0
1010
0.0
1020
0.0
1030
1.0
1000
SOLID
1070
     1
1070
     1
1071
        1
1071
        1
1071
        3
1070
     1
1040
163.5711744893662
1040
103.9131056342952
1040
164.3718152083165
1040
102.5267982964914
1070
     1
1040
164.3718152083165
1040
102.5267982964914
1040
165.1724559272668
1040
103.9131056342952
1070
     1
1040
165.1724559272668
1040
103.9131056342952
1040
163.5711744893662
1040
103.9131056342952
1071
        0
1070
     2
1070
     1
1071
        0
1002
}
  0
POLYLINE
  5
13D
330
1F
100
AcDbEntity
  8
EBENE_3
100
AcDb2dPolyline
 66
     1
 10
0.0
 20
0.0
 30
0.0
  0
VERTEX
  5
13E
330
13D
100
AcDbEntity
  8
EBENE_3
100
AcDbVertex
100
AcDb2dVertex
 10
165.1772790641279
 20
125.581564747659
 30
0.0
  0
VERTEX
  5
13F
330
13D
100
AcDbEntity
  8
EBENE_3
100
AcDbVertex
100
AcDb2dVertex
 10
164.3773273647292
 20
126.9678720854627
 30
0.0
  0
VERTEX
  5
140
330
13D
100
AcDbEntity
  8
EBENE_3
100
AcDbVertex
100
AcDb2dVertex
 10
163.5766866457789
 20
125.581564747659
 30
0.0
  0
VERTEX
  5
141
330
13D
100
AcDbEntity
  8
EBENE_3
100
AcDbVertex
100
AcDb2dVertex
 10
165.1772790641279
 20
125.581564747659
 30
0.0
  0
SEQEND
  5
142
330
13D
100
AcDbEntity
  8
EBENE_3
  0
INSERT
  5
143
330
1F
100
AcDbEntity
  8
EBENE_3
 62
   250
100
AcDbBlockReference
  2
*U40
 10
0.0
 20
0.0
 30
0.0
1001
ACAD
1002
{
1000
R14_HATCH_DATA
1000
143
1011
1.0
1021
0.0
1031
0.0
1011
0.0
1021
1.0
1031
0.0
1011
0.0
1021
0.0
1031
1.0
1040
0.0
1010
0.0
1020
0.0
1030
1.0
1000
SOLID
1070
     1
1070
     1
1071
        1
1071
        1
1071
        3
1070
     1
1040
165.1772790641279
1040
125.581564747659
1040
164.3773273647292
1040
126.9678720854627
1070
     1
1040
164.3773273647292
1040
126.9678720854627
1040
163.5766866457789
1040
125.581564747659
1070
     1
1040
163.5766866457789
1040
125.581564747659
1040
165.1772790641279
1040
125.581564747659
1071
        0
1070
     2
1070
     1
1071
        0
1002
}
  0
INSERT
  5
145
330
1F
100
AcDbEntity
  8
EBENE_3
100
AcDbBlockReference
  2
BLOCK_10
 10
0.0
 20
0.0
 30
0.0
  0
INSERT
  5
14D
330
1F
100
AcDbEntity
  8
EBENE_3
100
AcDbBlockReference
  2
BLOCK_11
 10
0.0
 20
0.0
 30
0.0
  0
INSERT
  5
155
330
1F
100
AcDbEntity
  8
EBENE_3
100
AcDbBlockReference
  2
BLOCK_12
 10
0.0
 20
0.0
 30
0.0
  0
MTEXT
  5
15C
330
1F
100
AcDbEntity
  8
EBENE_3
 62
   250
100
AcDbMText
 10
162.0288042231267
 20
113.7691858100478
 30
0.0
 40
1.679223329576718
 41
0.0
 71
     7
 72
     1
  1
\fFutura Book|b0|i0|c0|p34;\W1;500
  0
SPLINE
  5
15D
330
1F
100
AcDbEntity
  8
EBENE_3
 62
   250
100
AcDbSpline
210
0.0
220
0.0
230
1.0
 70
    24
 71
     3
 72
     8
 73
     4
 74
     0
 42
0.0000000001
 43
0.0000000001
 40
0.0
 40
0.0
 40
0.0
 40
0.0
 40
1.0
 40
1.0
 40
1.0
 40
1.0
 10
119.3893460374986
 20
133.6658311464919
 30
0.0
 10
122.4566888262998
 20
133.6658311464919
 30
0.0
 10
144.5757667264049
 20
133.6658311464919
 30
0.0
 10
147.6439707896456
 20
133.6658311464919
 30
0.0
  0
SPLINE
  5
15E
330
1F
100
AcDbEntity
  8
EBENE_3
 62
   250
100
AcDbSpline
210
0.0
220
0.0
230
1.0
 70
    24
 71
     3
 72
     8
 73
     4
 74
     0
 42
0.0000000001
 43
0.0000000001
 40
0.0
 40
0.0
 40
0.0
 40
0.0
 40
1.0
 40
1.0
 40
1.0
 40
1.0
 10
83.78615551273145
 20
133.6647976171645
 30
0.0
 10
86.89466721974028
 20
133.6647976171645
 30
0.0
 10
109.0543972733894
 20
133.6647976171645
 30
0.0
 10
112.1629089803982
 20
133.6647976171645
 30
0.0
  0
POLYLINE
  5
15F
330
1F
100
AcDbEntity
  8
EBENE_3
100
AcDb2dPolyline
 66
     1
 10
0.0
 20
0.0
 30
0.0
  0
VERTEX
  5
160
330
15F
100
AcDbEntity
  8
EBENE_3
100
AcDbVertex
100
AcDb2dVertex
 10
147.4097041421042
 20
132.862778859111
 30
0.0
  0
VERTEX
  5
161
330
15F
100
AcDbEntity
  8
EBENE_3
100
AcDbVertex
100
AcDb2dVertex
 10
148.796011479908
 20
133.6630750682855
 30
0.0
  0
VERTEX
  5
162
330
15F
100
AcDbEntity
  8
EBENE_3
100
AcDbVertex
100
AcDb2dVertex
 10
147.4097041421042
 20
134.46337127746
 30
0.0
  0
VERTEX
  5
163
330
15F
100
AcDbEntity
  8
EBENE_3
100
AcDbVertex
100
AcDb2dVertex
 10
147.4097041421042
 20
132.862778859111
 30
0.0
  0
SEQEND
  5
164
330
15F
100
AcDbEntity
  8
EBENE_3
  0
INSERT
  5
165
330
1F
100
AcDbEntity
  8
EBENE_3
 62
   250
100
AcDbBlockReference
  2
*U41
 10
0.0
 20
0.0
 30
0.0
1001
ACAD
1002
{
1000
R14_HATCH_DATA
1000
165
1011
1.0
1021
0.0
1031
0.0
1011
0.0
1021
1.0
1031
0.0
1011
0.0
1021
0.0
1031
1.0
1040
0.0
1010
0.0
1020
0.0
1030
1.0
1000
SOLID
1070
     1
1070
     1
1071
        1
1071
        1
1071
        3
1070
     1
1040
147.4097041421042
1040
132.862778859111
1040
148.796011479908
1040
133.6630750682855
1070
     1
1040
148.796011479908
1040
133.6630750682855
1040
147.4097041421042
1040
134.46337127746
1070
     1
1040
147.4097041421042
1040
134.46337127746
1040
147.4097041421042
1040
132.862778859111
1071
        0
1070
     2
1070
     1
1071
        0
1002
}
  0
POLYLINE
  5
166
330
1F
100
AcDbEntity
  8
EBENE_3
100
AcDb2dPolyline
 66
     1
 10
0.0
 20
0.0
 30
0.0
  0
VERTEX
  5
167
330
166
100
AcDbEntity
  8
EBENE_3
100
AcDbVertex
100
AcDb2dVertex
 10
84.02042216027284
 20
134.4678499045453
 30
0.0
  0
VERTEX
  5
168
330
166
100
AcDbEntity
  8
EBENE_3
100
AcDbVertex
100
AcDb2dVertex
 10
82.63411482246906
 20
133.6672091855951
 30
0.0
  0
VERTEX
  5
169
330
166
100
AcDbEntity
  8
EBENE_3
100
AcDbVertex
100
AcDb2dVertex
 10
84.02042216027284
 20
132.8672574861963
 30
0.0
  0
VERTEX
  5
16A
330
166
100
AcDbEntity
  8
EBENE_3
100
AcDbVertex
100
AcDb2dVertex
 10
84.02042216027284
 20
134.4678499045453
 30
0.0
  0
SEQEND
  5
16B
330
166
100
AcDbEntity
  8
EBENE_3
  0
INSERT
  5
16C
330
1F
100
AcDbEntity
  8
EBENE_3
 62
   250
100
AcDbBlockReference
  2
*U42
 10
0.0
 20
0.0
 30
0.0
1001
ACAD
1002
{
1000
R14_HATCH_DATA
1000
16C
1011
1.0
1021
0.0
1031
0.0
1011
0.0
1021
1.0
1031
0.0
1011
0.0
1021
0.0
1031
1.0
1040
0.0
1010
0.0
1020
0.0
1030
1.0
1000
SOLID
1070
     1
1070
     1
1071
        1
1071
        1
1071
        3
1070
     1
1040
84.02042216027284
1040
134.4678499045453
1040
82.63411482246906
1040
133.6672091855951
1070
     1
1040
82.63411482246906
1040
133.6672091855951
1040
84.02042216027284
1040
132.8672574861963
1070
     1
1040
84.02042216027284
1040
132.8672574861963
1040
84.02042216027284
1040
134.4678499045453
1071
        0
1070
     2
1070
     1
1071
        0
1002
}
  0
INSERT
  5
16E
330
1F
100
AcDbEntity
  8
EBENE_3
100
AcDbBlockReference
  2
BLOCK_13
 10
0.0
 20
0.0
 30
0.0
  0
INSERT
  5
176
330
1F
100
AcDbEntity
  8
EBENE_3
100
AcDbBlockReference
  2
BLOCK_14
 10
0.0
 20
0.0
 30
0.0
  0
MTEXT
  5
17D
330
1F
100
AcDbEntity
  8
EBENE_3
 62
   250
100
AcDbMText
 10
112.6822574674109
 20
129.1729069054461
 30
0.0
 40
1.679223329576718
 41
0.0
 71
     7
 72
     1
  1
\fFutura Book|b0|i0|c0|p34;\W1;1100
  0
SPLINE
  5
17E
330
1F
100
AcDbEntity
  8
EBENE_3
 62
   250
100
AcDbSpline
210
0.0
220
0.0
230
1.0
 70
    24
 71
     3
 72
     8
 73
     4
 74
     0
 42
0.0000000001
 43
0.0000000001
 40
0.0
 40
0.0
 40
0.0
 40
0.0
 40
1.0
 40
1.0
 40
1.0
 40
1.0
 10
119.3907240766018
 20
130.1380510423391
 30
0.0
 10
122.2095030621661
 20
130.1380510423391
 30
0.0
 10
142.53557983414
 20
130.1380510423391
 30
0.0
 10
145.3550478392559
 20
130.1380510423391
 30
0.0
  0
SPLINE
  5
17F
330
1F
100
AcDbEntity
  8
EBENE_3
 62
   250
100
AcDbSpline
210
0.0
220
0.0
230
1.0
 70
    24
 71
     3
 72
     8
 73
     4
 74
     0
 42
0.0000000001
 43
0.0000000001
 40
0.0
 40
0.0
 40
0.0
 40
0.0
 40
1.0
 40
1.0
 40
1.0
 40
1.0
 10
86.08093512930972
 20
130.1370175130117
 30
0.0
 10
88.93709342554787
 20
130.1370175130117
 30
0.0
 10
109.2981379397651
 20
130.1370175130117
 30
0.0
 10
112.1542962360033
 20
130.1370175130117
 30
0.0
  0
POLYLINE
  5
180
330
1F
100
AcDbEntity
  8
EBENE_3
100
AcDb2dPolyline
 66
     1
 10
0.0
 20
0.0
 30
0.0
  0
VERTEX
  5
181
330
180
100
AcDbEntity
  8
EBENE_3
100
AcDbVertex
100
AcDb2dVertex
 10
145.1207811917145
 20
129.3349987549582
 30
0.0
  0
VERTEX
  5
182
330
180
100
AcDbEntity
  8
EBENE_3
100
AcDbVertex
100
AcDb2dVertex
 10
146.5070885295183
 20
130.1352949641327
 30
0.0
  0
VERTEX
  5
183
330
180
100
AcDbEntity
  8
EBENE_3
100
AcDbVertex
100
AcDb2dVertex
 10
145.1207811917145
 20
130.9355911733072
 30
0.0
  0
VERTEX
  5
184
330
180
100
AcDbEntity
  8
EBENE_3
100
AcDbVertex
100
AcDb2dVertex
 10
145.1207811917145
 20
129.3349987549582
 30
0.0
  0
SEQEND
  5
185
330
180
100
AcDbEntity
  8
EBENE_3
  0
INSERT
  5
186
330
1F
100
AcDbEntity
  8
EBENE_3
 62
   250
100
AcDbBlockReference
  2
*U43
 10
0.0
 20
0.0
 30
0.0
1001
ACAD
1002
{
1000
R14_HATCH_DATA
1000
186
1011
1.0
1021
0.0
1031
0.0
1011
0.0
1021
1.0
1031
0.0
1011
0.0
1021
0.0
1031
1.0
1040
0.0
1010
0.0
1020
0.0
1030
1.0
1000
SOLID
1070
     1
1070
     1
1071
        1
1071
        1
1071
        3
1070
     1
1040
145.1207811917145
1040
129.3349987549582
1040
146.5070885295183
1040
130.1352949641327
1070
     1
1040
146.5070885295183
1040
130.1352949641327
1040
145.1207811917145
1040
130.9355911733072
1070
     1
1040
145.1207811917145
1040
130.9355911733072
1040
145.1207811917145
1040
129.3349987549582
1071
        0
1070
     2
1070
     1
1071
        0
1002
}
  0
POLYLINE
  5
187
330
1F
100
AcDbEntity
  8
EBENE_3
100
AcDb2dPolyline
 66
     1
 10
0.0
 20
0.0
 30
0.0
  0
VERTEX
  5
188
330
187
100
AcDbEntity
  8
EBENE_3
100
AcDbVertex
100
AcDb2dVertex
 10
86.31520177685113
 20
130.9400698003926
 30
0.0
  0
VERTEX
  5
189
330
187
100
AcDbEntity
  8
EBENE_3
100
AcDbVertex
100
AcDb2dVertex
 10
84.92889443904734
 20
130.1394290814423
 30
0.0
  0
VERTEX
  5
18A
330
187
100
AcDbEntity
  8
EBENE_3
100
AcDbVertex
100
AcDb2dVertex
 10
86.31520177685113
 20
129.3394773820436
 30
0.0
  0
VERTEX
  5
18B
330
187
100
AcDbEntity
  8
EBENE_3
100
AcDbVertex
100
AcDb2dVertex
 10
86.31520177685113
 20
130.9400698003926
 30
0.0
  0
SEQEND
  5
18C
330
187
100
AcDbEntity
  8
EBENE_3
  0
INSERT
  5
18D
330
1F
100
AcDbEntity
  8
EBENE_3
 62
   250
100
AcDbBlockReference
  2
*U44
 10
0.0
 20
0.0
 30
0.0
1001
ACAD
1002
{
1000
R14_HATCH_DATA
1000
18D
1011
1.0
1021
0.0
1031
0.0
1011
0.0
1021
1.0
1031
0.0
1011
0.0
1021
0.0
1031
1.0
1040
0.0
1010
0.0
1020
0.0
1030
1.0
1000
SOLID
1070
     1
1070
     1
1071
        1
1071
        1
1071
        3
1070
     1
1040
86.31520177685113
1040
130.9400698003926
1040
84.92889443904734
1040
130.1394290814423
1070
     1
1040
84.92889443904734
1040
130.1394290814423
1040
86.31520177685113
1040
129.3394773820436
1070
     1
1040
86.31520177685113
1040
129.3394773820436
1040
86.31520177685113
1040
130.9400698003926
1071
        0
1070
     2
1070
     1
1071
        0
1002
}
  0
INSERT
  5
18F
330
1F
100
AcDbEntity
  8
EBENE_3
100
AcDbBlockReference
  2
BLOCK_15
 10
0.0
 20
0.0
 30
0.0
  0
INSERT
  5
197
330
1F
100
AcDbEntity
  8
EBENE_3
100
AcDbBlockReference
  2
BLOCK_16
 10
0.0
 20
0.0
 30
0.0
  0
SPLINE
  5
19E
330
1F
100
AcDbEntity
  8
EBENE_3
 62
   250
100
AcDbSpline
210
0.0
220
0.0
230
1.0
 70
    24
 71
     3
 72
     8
 73
     4
 74
     0
 42
0.0000000001
 43
0.0000000001
 40
0.0
 40
0.0
 40
0.0
 40
0.0
 40
1.0
 40
1.0
 40
1.0
 40
1.0
 10
79.82394858129972
 20
109.1980578498964
 30
0.0
 10
79.82394858129972
 20
108.118708722327
 30
0.0
 10
79.82394858129972
 20
107.0397041045334
 30
0.0
 10
79.82394858129972
 20
105.9606994867398
 30
0.0
  0
POLYLINE
  5
19F
330
1F
100
AcDbEntity
  8
EBENE_3
 62
   250
100
AcDb2dPolyline
 66
     1
 10
0.0
 20
0.0
 30
0.0
  0
VERTEX
  5
1A0
330
19F
100
AcDbEntity
  8
EBENE_3
 62
   250
100
AcDbVertex
100
AcDb2dVertex
 10
148.892301962243
 20
102.4255124224074
 30
0.0
  0
VERTEX
  5
1A1
330
19F
100
AcDbEntity
  8
EBENE_3
 62
   250
100
AcDbVertex
100
AcDb2dVertex
 10
82.54230296721938
 20
102.4255124224074
 30
0.0
  0
VERTEX
  5
1A2
330
19F
100
AcDbEntity
  8
EBENE_3
 62
   250
100
AcDbVertex
100
AcDb2dVertex
 10
82.54230296721938
 20
127.0526214903086
 30
0.0
  0
VERTEX
  5
1A3
330
19F
100
AcDbEntity
  8
EBENE_3
 62
   250
100
AcDbVertex
100
AcDb2dVertex
 10
148.892301962243
 20
127.0526214903086
 30
0.0
  0
VERTEX
  5
1A4
330
19F
100
AcDbEntity
  8
EBENE_3
 62
   250
100
AcDbVertex
100
AcDb2dVertex
 10
148.892301962243
 20
102.4255124224074
 30
0.0
  0
SEQEND
  5
1A5
330
19F
100
AcDbEntity
  8
EBENE_3
  0
SPLINE
  5
1A6
330
1F
100
AcDbEntity
  8
EBENE_3
 62
   250
100
AcDbSpline
210
0.0
220
0.0
230
1.0
 70
    11
 71
     3
 72
    29
 73
    25
 74
     0
 42
0.0000000001
 43
0.0000000001
 40
0.0
 40
0.0
 40
0.0
 40
0.0
 40
1.0
 40
1.0
 40
1.0
 40
2.0
 40
2.0
 40
2.0
 40
3.0
 40
3.0
 40
3.0
 40
4.0
 40
4.0
 40
4.0
 40
5.0
 40
5.0
 40
5.0
 40
6.0
 40
6.0
 40
6.0
 40
7.0
 40
7.0
 40
7.0
 40
8.0
 40
8.0
 40
8.0
 40
8.0
 10
146.6014842080864
 20
106.2159812306047
 30
0.0
 10
146.6014842080864
 20
104.7166746863398
 30
0.0
 10
145.8959281872559
 20
104.7166746863398
 30
0.0
 10
144.3952436038877
 20
104.7166746863398
 30
0.0
 10
144.3952436038877
 20
104.7166746863398
 30
0.0
 10
86.33570010851099
 20
104.7166746863398
 30
0.0
 10
86.33570010851099
 20
104.7166746863398
 30
0.0
 10
84.83536003491868
 20
104.7166746863398
 30
0.0
 10
84.83536003491868
 20
104.7166746863398
 30
0.0
 10
84.83536003491868
 20
106.2159812306047
 30
0.0
 10
84.83536003491868
 20
106.2159812306047
 30
0.0
 10
84.83536003491868
 20
118.0361116381713
 30
0.0
 10
84.83536003491868
 20
118.0361116381713
 30
0.0
 10
84.83536003491868
 20
119.5361072019878
 30
0.0
 10
84.83536003491868
 20
119.5361072019878
 30
0.0
 10
86.33570010851099
 20
119.5361072019878
 30
0.0
 10
86.33570010851099
 20
119.5361072019878
 30
0.0
 10
144.3952436038877
 20
119.5361072019878
 30
0.0
 10
144.3952436038877
 20
119.5361072019878
 30
0.0
 10
145.8959281872559
 20
119.5361072019878
 30
0.0
 10
146.6014842080864
 20
119.5361072019878
 30
0.0
 10
146.6014842080864
 20
118.0361116381713
 30
0.0
 10
146.6014842080864
 20
118.0361116381713
 30
0.0
 10
146.6014842080864
 20
106.2159812306047
 30
0.0
 10
146.6014842080864
 20
106.2159812306047
 30
0.0
  0
SPLINE
  5
1A7
330
1F
100
AcDbEntity
  8
EBENE_3
 62
   250
100
AcDbSpline
210
0.0
220
0.0
230
1.0
 70
    11
 71
     3
 72
    17
 73
    13
 74
     0
 42
0.0000000001
 43
0.0000000001
 40
0.0
 40
0.0
 40
0.0
 40
0.0
 40
1.0
 40
1.0
 40
1.0
 40
2.0
 40
2.0
 40
2.0
 40
3.0
 40
3.0
 40
3.0
 40
4.0
 40
4.0
 40
4.0
 40
4.0
 10
114.8020261178847
 20
112.1263909441638
 30
0.0
 10
114.8020261178847
 20
112.6321312950326
 30
0.0
 10
115.2119927510822
 20
113.04209792823
 30
0.0
 10
115.717733101951
 20
113.04209792823
 30
0.0
 10
116.2234734528197
 20
113.04209792823
 30
0.0
 10
116.6334400860172
 20
112.6321312950326
 30
0.0
 10
116.6334400860172
 20
112.1263909441638
 30
0.0
 10
116.6334400860172
 20
111.620650593295
 30
0.0
 10
116.2234734528197
 20
111.2106839600976
 30
0.0
 10
115.717733101951
 20
111.2106839600976
 30
0.0
 10
115.2119927510822
 20
111.2106839600976
 30
0.0
 10
114.8020261178847
 20
111.620650593295
 30
0.0
 10
114.8020261178847
 20
112.1263909441638
 30
0.0
  0
SPLINE
  5
1A8
330
1F
100
AcDbEntity
  8
EBENE_3
 62
   250
100
AcDbSpline
210
0.0
220
0.0
230
1.0
 70
    11
 71
     3
 72
    17
 73
    13
 74
     0
 42
0.0000000001
 43
0.0000000001
 40
0.0
 40
0.0
 40
0.0
 40
0.0
 40
1.0
 40
1.0
 40
1.0
 40
2.0
 40
2.0
 40
2.0
 40
3.0
 40
3.0
 40
3.0
 40
4.0
 40
4.0
 40
4.0
 40
4.0
 10
114.2106750877306
 20
112.1263909441638
 30
0.0
 10
114.2106750877306
 20
112.9587265624873
 30
0.0
 10
114.8853974836274
 20
113.6332767034962
 30
0.0
 10
115.717733101951
 20
113.6332767034962
 30
0.0
 10
116.5500687202745
 20
113.6332767034962
 30
0.0
 10
117.2247911161713
 20
112.9587265624873
 30
0.0
 10
117.2247911161713
 20
112.1263909441638
 30
0.0
 10
117.2247911161713
 20
111.2940553258402
 30
0.0
 10
116.5500687202745
 20
110.6195051848313
 30
0.0
 10
115.717733101951
 20
110.6195051848313
 30
0.0
 10
114.8853974836274
 20
110.6195051848313
 30
0.0
 10
114.2106750877306
 20
111.2940553258402
 30
0.0
 10
114.2106750877306
 20
112.1263909441638
 30
0.0
  0
POLYLINE
  5
1A9
330
1F
100
AcDbEntity
  8
EBENE_3
 62
   250
100
AcDb2dPolyline
 66
     1
 10
0.0
 20
0.0
 30
0.0
  0
VERTEX
  5
1AA
330
1A9
100
AcDbEntity
  8
EBENE_3
 62
   250
100
AcDbVertex
100
AcDb2dVertex
 10
118.2178405449038
 20
112.1263909441638
 30
0.0
  0
VERTEX
  5
1AB
330
1A9
100
AcDbEntity
  8
EBENE_3
 62
   250
100
AcDbVertex
100
AcDb2dVertex
 10
113.217797913886
 20
112.1263909441638
 30
0.0
  0
SEQEND
  5
1AC
330
1A9
100
AcDbEntity
  8
EBENE_3
  0
POLYLINE
  5
1AD
330
1F
100
AcDbEntity
  8
EBENE_3
  6
AI-LINETYPE-3
 62
   250
100
AcDb2dPolyline
 66
     1
 10
0.0
 20
0.0
 30
0.0
  0
VERTEX
  5
1AE
330
1AD
100
AcDbEntity
  8
EBENE_3
  6
AI-LINETYPE-3
 62
   250
100
AcDbVertex
100
AcDb2dVertex
 10
97.69384290673489
 20
123.3036661100947
 30
0.0
  0
VERTEX
  5
1AF
330
1AD
100
AcDbEntity
  8
EBENE_3
  6
AI-LINETYPE-3
 62
   250
100
AcDbVertex
100
AcDb2dVertex
 10
100.578767769252
 20
123.3036661100947
 30
0.0
  0
SEQEND
  5
1B0
330
1AD
100
AcDbEntity
  8
EBENE_3
  6
AI-LINETYPE-3
  0
SPLINE
  5
1B2
330
1F
100
AcDbEntity
  8
EBENE_3
 62
   250
100
AcDbSpline
210
0.0
220
0.0
230
1.0
 70
    11
 71
     3
 72
    23
 73
    19
 74
     0
 42
0.0000000001
 43
0.0000000001
 40
0.0
 40
0.0
 40
0.0
 40
0.0
 40
1.0
 40
1.0
 40
1.0
 40
2.0
 40
2.0
 40
2.0
 40
3.0
 40
3.0
 40
3.0
 40
4.0
 40
4.0
 40
4.0
 40
5.0
 40
5.0
 40
5.0
 40
6.0
 40
6.0
 40
6.0
 40
6.0
 10
99.83221508510171
 20
123.3753241434603
 30
0.0
 10
99.7965583233068
 20
123.7556629359393
 30
0.0
 10
99.45980001746605
 20
124.0347158543342
 30
0.0
 10
99.07963347987497
 20
123.9988868376514
 30
0.0
 10
98.6996391971718
 20
123.9634023307444
 30
0.0
 10
98.41972500433741
 20
123.6264717700157
 30
0.0
 10
98.45555402102022
 20
123.2457884677609
 30
0.0
 10
98.49103852792722
 20
122.8661386948336
 30
0.0
 10
98.82865810820746
 20
122.5863967568871
 30
0.0
 10
99.20882464579854
 20
122.6222257735699
 30
0.0
 10
99.58881892850171
 20
122.6580547902527
 30
0.0
 10
99.8678718468966
 20
122.9949853509813
 30
0.0
 10
99.83221508510171
 20
123.3753241434603
 30
0.0
 10
99.83221508510171
 20
123.3753241434603
 30
0.0
 10
99.83221508510171
 20
123.3753241434603
 30
0.0
 10
99.83221508510171
 20
123.3753241434603
 30
0.0
 10
99.83221508510171
 20
123.3753241434603
 30
0.0
 10
99.83221508510171
 20
123.3753241434603
 30
0.0
 10
99.83221508510171
 20
123.3753241434603
 30
0.0
  0
SPLINE
  5
1B3
330
1F
100
AcDbEntity
  8
EBENE_3
 62
   250
100
AcDbSpline
210
0.0
220
0.0
230
1.0
 70
    24
 71
     3
 72
     8
 73
     4
 74
     0
 42
0.0000000001
 43
0.0000000001
 40
0.0
 40
0.0
 40
0.0
 40
0.0
 40
1.0
 40
1.0
 40
1.0
 40
1.0
 10
164.3745712865229
 20
112.6789846245408
 30
0.0
 10
164.3745712865229
 20
109.6789934969078
 30
0.0
 10
164.3745712865229
 20
106.6790023692748
 30
0.0
 10
164.3745712865229
 20
103.6788389867538
 30
0.0
  0
SPLINE
  5
1B4
330
1F
100
AcDbEntity
  8
EBENE_3
 62
   250
100
AcDbSpline
210
0.0
220
0.0
230
1.0
 70
    24
 71
     3
 72
     8
 73
     4
 74
     0
 42
0.0000000001
 43
0.0000000001
 40
0.0
 40
0.0
 40
0.0
 40
0.0
 40
1.0
 40
1.0
 40
1.0
 40
1.0
 10
164.3745712865229
 20
125.8158313952003
 30
0.0
 10
164.3745712865229
 20
122.8158402675673
 30
0.0
 10
164.3745712865229
 20
119.8158491399343
 30
0.0
 10
164.3745712865229
 20
116.8158580123012
 30
0.0
  0
POLYLINE
  5
1B5
330
1F
100
AcDbEntity
  8
EBENE_3
  6
AI-LINETYPE-4
 62
   250
100
AcDb2dPolyline
 66
     1
 10
0.0
 20
0.0
 30
0.0
  0
VERTEX
  5
1B6
330
1B5
100
AcDbEntity
  8
EBENE_3
  6
AI-LINETYPE-4
 62
   250
100
AcDbVertex
100
AcDb2dVertex
 10
130.8591100030805
 20
123.3029770905431
 30
0.0
  0
VERTEX
  5
1B7
330
1B5
100
AcDbEntity
  8
EBENE_3
  6
AI-LINETYPE-4
 62
   250
100
AcDbVertex
100
AcDb2dVertex
 10
133.7440348655976
 20
123.3029770905431
 30
0.0
  0
SEQEND
  5
1B8
330
1B5
100
AcDbEntity
  8
EBENE_3
  6
AI-LINETYPE-4
  0
SPLINE
  5
1BA
330
1F
100
AcDbEntity
  8
EBENE_3
 62
   250
100
AcDbSpline
210
0.0
220
0.0
230
1.0
 70
    11
 71
     3
 72
    23
 73
    19
 74
     0
 42
0.0000000001
 43
0.0000000001
 40
0.0
 40
0.0
 40
0.0
 40
0.0
 40
1.0
 40
1.0
 40
1.0
 40
2.0
 40
2.0
 40
2.0
 40
3.0
 40
3.0
 40
3.0
 40
4.0
 40
4.0
 40
4.0
 40
5.0
 40
5.0
 40
5.0
 40
6.0
 40
6.0
 40
6.0
 40
6.0
 10
132.9974821814473
 20
123.3746351239087
 30
0.0
 10
132.9618254196524
 20
123.7549739163877
 30
0.0
 10
132.6250671138116
 20
124.0340268347826
 30
0.0
 10
132.2449005762205
 20
123.9981978180998
 30
0.0
 10
131.8649062935174
 20
123.9630578209686
 30
0.0
 10
131.584992100683
 20
123.6261272602399
 30
0.0
 10
131.6208211173658
 20
123.2450994482093
 30
0.0
 10
131.6563056242728
 20
122.865449675282
 30
0.0
 10
131.9939252045531
 20
122.5857077373355
 30
0.0
 10
132.3740917421441
 20
122.6215367540183
 30
0.0
 10
132.7540860248473
 20
122.6573657707011
 30
0.0
 10
133.0331389432422
 20
122.9942963314297
 30
0.0
 10
132.9974821814473
 20
123.3746351239087
 30
0.0
 10
132.9974821814473
 20
123.3746351239087
 30
0.0
 10
132.9974821814473
 20
123.3746351239087
 30
0.0
 10
132.9974821814473
 20
123.3746351239087
 30
0.0
 10
132.9974821814473
 20
123.3746351239087
 30
0.0
 10
132.9974821814473
 20
123.3746351239087
 30
0.0
 10
132.9974821814473
 20
123.3746351239087
 30
0.0
  0
POLYLINE
  5
1BB
330
1F
100
AcDbEntity
  8
EBENE_3
 62
   250
100
AcDb2dPolyline
 66
     1
 10
0.0
 20
0.0
 30
0.0
  0
VERTEX
  5
1BC
330
1BB
100
AcDbEntity
  8
EBENE_3
 62
   250
100
AcDbVertex
100
AcDb2dVertex
 10
132.3012279245632
 20
128.0007123932997
 30
0.0
  0
VERTEX
  5
1BD
330
1BB
100
AcDbEntity
  8
EBENE_3
 62
   250
100
AcDbVertex
100
AcDb2dVertex
 10
132.3012279245632
 20
122.9777598621915
 30
0.0
  0
SEQEND
  5
1BE
330
1BB
100
AcDbEntity
  8
EBENE_3
  0
POLYLINE
  5
1BF
330
1F
100
AcDbEntity
  8
EBENE_3
 62
   250
100
AcDb2dPolyline
 66
     1
 10
0.0
 20
0.0
 30
0.0
  0
VERTEX
  5
1C0
330
1BF
100
AcDbEntity
  8
EBENE_3
 62
   250
100
AcDbVertex
100
AcDb2dVertex
 10
132.3012279245632
 20
121.9745473950731
 30
0.0
  0
VERTEX
  5
1C1
330
1BF
100
AcDbEntity
  8
EBENE_3
 62
   250
100
AcDbVertex
100
AcDb2dVertex
 10
132.3012279245632
 20
122.4044955952667
 30
0.0
  0
SEQEND
  5
1C2
330
1BF
100
AcDbEntity
  8
EBENE_3
  0
POLYLINE
  5
1C3
330
1F
100
AcDbEntity
  8
EBENE_3
 62
   250
100
AcDb2dPolyline
 66
     1
 10
0.0
 20
0.0
 30
0.0
  0
VERTEX
  5
1C4
330
1C3
100
AcDbEntity
  8
EBENE_3
 62
   250
100
AcDbVertex
100
AcDb2dVertex
 10
99.07963347987497
 20
123.0862804415673
 30
0.0
  0
VERTEX
  5
1C5
330
1C3
100
AcDbEntity
  8
EBENE_3
 62
   250
100
AcDbVertex
100
AcDb2dVertex
 10
99.07963347987497
 20
128.0031239617302
 30
0.0
  0
SEQEND
  5
1C6
330
1C3
100
AcDbEntity
  8
EBENE_3
  0
POLYLINE
  5
1C7
330
1F
100
AcDbEntity
  8
EBENE_3
 62
   250
100
AcDb2dPolyline
 66
     1
 10
0.0
 20
0.0
 30
0.0
  0
VERTEX
  5
1C8
330
1C7
100
AcDbEntity
  8
EBENE_3
 62
   250
100
AcDbVertex
100
AcDb2dVertex
 10
99.07963347987497
 20
122.4027730463877
 30
0.0
  0
VERTEX
  5
1C9
330
1C7
100
AcDbEntity
  8
EBENE_3
 62
   250
100
AcDbVertex
100
AcDb2dVertex
 10
99.07963347987497
 20
121.994873471845
 30
0.0
  0
SEQEND
  5
1CA
330
1C7
100
AcDbEntity
  8
EBENE_3
  0
INSERT
  5
1CC
330
1F
100
AcDbEntity
  8
EBENE_3
100
AcDbBlockReference
  2
BLOCK_17
 10
0.0
 20
0.0
 30
0.0
  0
MTEXT
  5
1D7
330
1F
100
AcDbEntity
  8
EBENE_3
 62
   250
100
AcDbMText
 10
156.160080192439
 20
111.1588352388403
 30
0.0
 40
1.679223329576718
 41
0.0
 71
     7
 72
     1
  1
\fFutura Book|b0|i0|c0|p34;\W1;300
  0
INSERT
  5
1D9
330
1F
100
AcDbEntity
  8
EBENE_3
100
AcDbBlockReference
  2
BLOCK_18
 10
0.0
 20
0.0
 30
0.0
  0
INSERT
  5
1E1
330
1F
100
AcDbEntity
  8
EBENE_3
100
AcDbBlockReference
  2
BLOCK_19
 10
0.0
 20
0.0
 30
0.0
  0
INSERT
  5
1E9
330
1F
100
AcDbEntity
  8
EBENE_3
100
AcDbBlockReference
  2
BLOCK_20
 10
0.0
 20
0.0
 30
0.0
  0
ENDSEC
  0
SECTION
  2
OBJECTS
  0
DICTIONARY
  5
C
330
0
100
AcDbDictionary
  3
ACAD_GROUP
350
D
  3
ACAD_LAYOUT
350
1A
  3
ACAD_MLINESTYLE
350
17
  3
ACAD_PLOTSETTINGS
350
19
  3
ACAD_TABLESTYLE
350
1F4
  3
ACAD_VISUALSTYLE
350
2A
1001
ACAD
1000
TREAT_AS_HARD
1070
     0
  0
DICTIONARY
  5
D
102
{ACAD_REACTORS
330
C
102
}
330
C
100
AcDbDictionary
1001
ACAD
1000
TREAT_AS_HARD
1070
     0
  0
DICTIONARY
  5
1A
102
{ACAD_REACTORS
330
C
102
}
330
C
100
AcDbDictionary
1001
ACAD
1000
TREAT_AS_HARD
1070
     0
  0
DICTIONARY
  5
17
102
{ACAD_REACTORS
330
C
102
}
330
C
100
AcDbDictionary
  3
STANDARD
350
18
1001
ACAD
1000
TREAT_AS_HARD
1070
     0
  0
DICTIONARY
  5
19
102
{ACAD_REACTORS
330
C
102
}
330
C
100
AcDbDictionary
1001
ACAD
1000
TREAT_AS_HARD
1070
     0
  0
DICTIONARY
  5
1F4
102
{ACAD_REACTORS
330
C
102
}
330
C
100
AcDbDictionary
1001
ACAD
1000
TREAT_AS_HARD
1070
     0
  0
DICTIONARY
  5
2A
102
{ACAD_REACTORS
330
C
102
}
330
C
100
AcDbDictionary
  3
2DWIREFRAME
350
2F
  3
3DWIREFRAME
350
30
  3
3D_HIDDEN
350
31
  3
BASIC
350
32
  3
BRIGHTEN
350
36
  3
COLORCHANGE
350
3A
  3
CONCEPTUAL
350
34
  3
DIM
350
35
  3
FACEPATTERN
350
39
  3
FLAT
350
2B
  3
FLATWITHEDGES
350
2C
  3
GOURAUD
350
2D
  3
GOURAUDWITHEDGES
350
2E
  3
LINEPATTERN
350
38
  3
REALISTIC
350
33
  3
THICKEN
350
37
1001
ACAD
1000
TREAT_AS_HARD
1070
     0
  0
MLINESTYLE
  5
18
102
{ACAD_REACTORS
330
17
102
}
330
17
100
AcDbMlineStyle
  2
Standard
 70
     0
  3

 62
   256
 51
90.0
 52
90.0
 71
     2
 49
0.5
 62
   256
  6
BYLAYER
 49
-0.5
 62
   256
  6
BYLAYER
  0
VISUALSTYLE
  5
2F
102
{ACAD_REACTORS
330
2A
102
}
330
2A
100
AcDbVisualStyle
  2
2dWireframe
 70
     4
 71
     0
 72
     2
 73
     0
 90
        0
 40
-0.6
 41
-30.0
 62
     5
 63
     7
 74
     1
 91
        4
 64
     7
 65
   257
 75
     1
175
     1
 42
1.0
 92
        0
 66
   257
 43
1.0
 76
     1
 77
     6
 78
     2
 67
     7
 79
     5
170
     0
171
     0
290
     0
174
     0
 93
        1
 44
0.0
173
     0
291
     0
 45
0.0
1001
ACAD
1000
AcDbSavedByObjectVersion
1070
     0
  0
VISUALSTYLE
  5
30
102
{ACAD_REACTORS
330
2A
102
}
330
2A
100
AcDbVisualStyle
  2
3dWireframe
 70
     5
 71
     0
 72
     2
 73
     0
 90
        0
 40
-0.6
 41
-30.0
 62
     5
 63
     7
 74
     1
 91
        4
 64
     7
 65
   257
 75
     1
175
     1
 42
1.0
 92
        0
 66
   257
 43
1.0
 76
     1
 77
     6
 78
     2
 67
     7
 79
     5
170
     0
171
     0
290
     0
174
     0
 93
        1
 44
0.0
173
     0
291
     0
 45
0.0
1001
ACAD
1000
AcDbSavedByObjectVersion
1070
     0
  0
VISUALSTYLE
  5
31
102
{ACAD_REACTORS
330
2A
102
}
330
2A
100
AcDbVisualStyle
  2
3D Hidden
 70
     6
 71
     1
 72
     2
 73
     2
 90
        0
 40
-0.6
 41
-30.0
 62
     5
 63
     7
 74
     2
 91
        2
 64
     7
 65
   257
 75
     2
175
     1
 42
40.0
 92
        0
 66
   257
 43
1.0
 76
     1
 77
     6
 78
     2
 67
     7
 79
     3
170
     0
171
     0
290
     0
174
     0
 93
        1
 44
0.0
173
     0
291
     0
 45
0.0
1001
ACAD
1000
AcDbSavedByObjectVersion
1070
     0
  0
VISUALSTYLE
  5
32
102
{ACAD_REACTORS
330
2A
102
}
330
2A
100
AcDbVisualStyle
  2
Basic
 70
     7
 71
     1
 72
     0
 73
     1
 90
        0
 40
-0.6
 41
-30.0
 62
     5
 63
     7
 74
     0
 91
        4
 64
     7
 65
   257
 75
     1
175
     1
 42
1.0
 92
        8
 66
     7
 43
1.0
 76
     1
 77
     6
 78
     2
 67
     7
 79
     5
170
     0
171
     0
290
     0
174
     0
 93
        1
 44
0.0
173
     0
291
     1
 45
0.0
1001
ACAD
1000
AcDbSavedByObjectVersion
1070
     0
  0
VISUALSTYLE
  5
36
102
{ACAD_REACTORS
330
2A
102
}
330
2A
100
AcDbVisualStyle
  2
Brighten
 70
    12
 71
     2
 72
     2
 73
     0
 90
        0
 40
-0.6
 41
-30.0
 62
     5
 63
     7
 74
     1
 91
        4
 64
     7
 65
   257
 75
     1
175
     1
 42
1.0
 92
        8
 66
     7
 43
1.0
 76
     1
 77
     6
 78
     2
 67
     7
 79
     5
170
     0
171
     0
290
     0
174
     0
 93
        1
 44
50.0
173
     0
291
     1
 45
0.0
1001
ACAD
1000
AcDbSavedByObjectVersion
1070
     0
  0
VISUALSTYLE
  5
3A
102
{ACAD_REACTORS
330
2A
102
}
330
2A
100
AcDbVisualStyle
  2
ColorChange
 70
    16
 71
     2
 72
     2
 73
     3
 90
        0
 40
-0.6
 41
-30.0
 62
     5
 63
     8
 74
     1
 91
        4
 64
     7
 65
   257
 75
     1
175
     1
 42
1.0
 92
        8
 66
     8
 43
1.0
 76
     1
 77
     6
 78
     2
 67
     7
 79
     5
170
     0
171
     0
290
     0
174
     0
 93
        1
 44
0.0
173
     0
291
     1
 45
0.0
1001
ACAD
1000
AcDbSavedByObjectVersion
1070
     0
  0
VISUALSTYLE
  5
34
102
{ACAD_REACTORS
330
2A
102
}
330
2A
100
AcDbVisualStyle
  2
Conceptual
 70
     9
 71
     3
 72
     2
 73
     0
 90
        0
 40
-0.6
 41
-30.0
 62
     5
 63
     7
 74
     2
 91
        2
 64
     7
 65
   257
 75
     1
175
     1
 42
40.0
 92
        8
 66
     7
 43
1.0
 76
     1
 77
     6
 78
     2
 67
     7
 79
     3
170
     0
171
     0
290
     0
174
     0
 93
        1
 44
0.0
173
     0
291
     0
 45
0.0
1001
ACAD
1000
AcDbSavedByObjectVersion
1070
     0
  0
VISUALSTYLE
  5
35
102
{ACAD_REACTORS
330
2A
102
}
330
2A
100
AcDbVisualStyle
  2
Dim
 70
    11
 71
     2
 72
     2
 73
     0
 90
        0
 40
-0.6
 41
-30.0
 62
     5
 63
     7
 74
     1
 91
        4
 64
     7
 65
   257
 75
     1
175
     1
 42
1.0
 92
        8
 66
     7
 43
1.0
 76
     1
 77
     6
 78
     2
 67
     7
 79
     5
170
     0
171
     0
290
     0
174
     0
 93
        1
 44
-50.0
173
     0
291
     1
 45
0.0
1001
ACAD
1000
AcDbSavedByObjectVersion
1070
     0
  0
VISUALSTYLE
  5
39
102
{ACAD_REACTORS
330
2A
102
}
330
2A
100
AcDbVisualStyle
  2
Facepattern
 70
    15
 71
     2
 72
     2
 73
     0
 90
        0
 40
-0.6
 41
-30.0
 62
     5
 63
     7
 74
     1
 91
        4
 64
     7
 65
   257
 75
     1
175
     1
 42
1.0
 92
        8
 66
     7
 43
1.0
 76
     1
 77
     6
 78
     2
 67
     7
 79
     5
170
     0
171
     0
290
     0
174
     0
 93
        1
 44
0.0
173
     0
291
     1
 45
0.0
1001
ACAD
1000
AcDbSavedByObjectVersion
1070
     0
  0
VISUALSTYLE
  5
2B
102
{ACAD_REACTORS
330
2A
102
}
330
2A
100
AcDbVisualStyle
  2
Flat
 70
     0
 71
     2
 72
     1
 73
     1
 90
        2
 40
-0.6
 41
30.0
 62
     5
 63
     7
 74
     0
 91
        4
 64
     7
 65
   257
 75
     1
175
     1
 42
1.0
 92
        8
 66
     7
 43
1.0
 76
     1
 77
     6
 78
     2
 67
     7
 79
     5
170
     0
171
     0
290
     0
174
     0
 93
       13
 44
0.0
173
     0
291
     1
 45
0.0
1001
ACAD
1000
AcDbSavedByObjectVersion
1070
     0
  0
VISUALSTYLE
  5
2C
102
{ACAD_REACTORS
330
2A
102
}
330
2A
100
AcDbVisualStyle
  2
FlatWithEdges
 70
     1
 71
     2
 72
     1
 73
     1
 90
        2
 40
-0.6
 41
30.0
 62
     5
 63
     7
 74
     1
 91
        4
 64
     7
 65
   257
 75
     1
175
     1
 42
1.0
 92
        0
 66
   257
 43
1.0
 76
     1
 77
     6
 78
     2
 67
     7
 79
     5
170
     0
171
     0
290
     0
174
     0
 93
       13
 44
0.0
173
     0
291
     1
 45
0.0
1001
ACAD
1000
AcDbSavedByObjectVersion
1070
     0
  0
VISUALSTYLE
  5
2D
102
{ACAD_REACTORS
330
2A
102
}
330
2A
100
AcDbVisualStyle
  2
Gouraud
 70
     2
 71
     2
 72
     2
 73
     1
 90
        2
 40
-0.6
 41
30.0
 62
     5
 63
     7
 74
     0
 91
        4
 64
     7
 65
   257
 75
     1
175
     1
 42
1.0
 92
        0
 66
     7
 43
1.0
 76
     1
 77
     6
 78
     2
 67
     7
 79
     5
170
     0
171
     0
290
     0
174
     0
 93
       13
 44
0.0
173
     0
291
     1
 45
0.0
1001
ACAD
1000
AcDbSavedByObjectVersion
1070
     0
  0
VISUALSTYLE
  5
2E
102
{ACAD_REACTORS
330
2A
102
}
330
2A
100
AcDbVisualStyle
  2
GouraudWithEdges
 70
     3
 71
     2
 72
     2
 73
     1
 90
        2
 40
-0.6
 41
30.0
 62
     5
 63
     7
 74
     1
 91
        4
 64
     7
 65
   257
 75
     1
175
     1
 42
1.0
 92
        0
 66
   257
 43
1.0
 76
     1
 77
     6
 78
     2
 67
     7
 79
     5
170
     0
171
     0
290
     0
174
     0
 93
       13
 44
0.0
173
     0
291
     1
 45
0.0
1001
ACAD
1000
AcDbSavedByObjectVersion
1070
     0
  0
VISUALSTYLE
  5
38
102
{ACAD_REACTORS
330
2A
102
}
330
2A
100
AcDbVisualStyle
  2
Linepattern
 70
    14
 71
     2
 72
     2
 73
     0
 90
        0
 40
-0.6
 41
-30.0
 62
     5
 63
     7
 74
     1
 91
        4
 64
     7
 65
   257
 75
     7
175
     7
 42
1.0
 92
        8
 66
     7
 43
1.0
 76
     1
 77
     6
 78
     2
 67
     7
 79
     5
170
     0
171
     0
290
     0
174
     0
 93
        1
 44
0.0
173
     0
291
     1
 45
0.0
1001
ACAD
1000
AcDbSavedByObjectVersion
1070
     0
  0
VISUALSTYLE
  5
33
102
{ACAD_REACTORS
330
2A
102
}
330
2A
100
AcDbVisualStyle
  2
Realistic
 70
     8
 71
     2
 72
     2
 73
     0
 90
        0
 40
-0.6
 41
-30.0
 62
     5
 63
     7
 74
     1
 91
        0
 64
     7
 65
   257
 75
     1
175
     1
 42
1.0
 92
        8
 66
     8
 43
1.0
 76
     1
 77
     6
 78
     2
 67
     7
 79
     5
170
     0
171
     0
290
     0
174
     0
 93
       13
 44
0.0
173
     0
291
     0
 45
0.0
1001
ACAD
1000
AcDbSavedByObjectVersion
1070
     0
  0
VISUALSTYLE
  5
37
102
{ACAD_REACTORS
330
2A
102
}
330
2A
100
AcDbVisualStyle
  2
Thicken
 70
    13
 71
     2
 72
     2
 73
     0
 90
        0
 40
-0.6
 41
-30.0
 62
     5
 63
     7
 74
     1
 91
        4
 64
     7
 65
   257
 75
     1
175
     1
 42
1.0
 92
       12
 66
     7
 43
1.0
 76
     1
 77
     6
 78
     2
 67
     7
 79
     5
170
     0
171
     0
290
     0
174
     0
 93
        1
 44
0.0
173
     0
291
     1
 45
0.0
1001
ACAD
1000
AcDbSavedByObjectVersion
1070
     0
  0
ENDSEC
  0
EOF
