  0
SECTION
  2
HEADER
  9
$ACADVER
  1
AC1009
  9
$INSBASE
 10
7.0
 20
2.145
 30
0.0
  9
$EXTMIN
 10
5.5320299999999998
 20
0.6314387193746694
 30
0.0
  9
$EXTMAX
 10
9.8843140374212322
 20
5.3806305477774101
 30
0.89
  9
$LIMMIN
 10
0.0
 20
0.0
  9
$LIMMAX
 10
12.0
 20
9.0
  9
$ORTHOMODE
 70
     1
  9
$REGENMODE
 70
     1
  9
$FILLMODE
 70
     1
  9
$QTEXTMODE
 70
     0
  9
$MIRRTEXT
 70
     1
  9
$DRAGMODE
 70
     2
  9
$LTSCALE
 40
1.0
  9
$OSMODE
 70
    37
  9
$ATTMODE
 70
     1
  9
$TEXTSIZE
 40
0.2
  9
$TRACEWID
 40
0.05
  9
$TEXTSTYLE
  7
STANDARD
  9
$CLAYER
  8
0
  9
$CELTYPE
  6
CONTINUOUS
  9
$CECOLOR
 62
   256
  9
$DIMSCALE
 40
1.0
  9
$DIMASZ
 40
0.18
  9
$DIMEXO
 40
0.0625
  9
$DIMDLI
 40
0.38
  9
$DIMRND
 40
0.0
  9
$DIMDLE
 40
0.0
  9
$DIMEXE
 40
0.18
  9
$DIMTP
 40
0.0
  9
$DIMTM
 40
0.0
  9
$DIMTXT
 40
0.18
  9
$DIMCEN
 40
0.09
  9
$DIMTSZ
 40
0.0
  9
$DIMTOL
 70
     0
  9
$DIMLIM
 70
     0
  9
$DIMTIH
 70
     1
  9
$DIMTOH
 70
     1
  9
$DIMSE1
 70
     0
  9
$DIMSE2
 70
     0
  9
$DIMTAD
 70
     0
  9
$DIMZIN
 70
     0
  9
$DIMBLK
  1

  9
$DIMASO
 70
     1
  9
$DIMSHO
 70
     1
  9
$DIMPOST
  1

  9
$DIMAPOST
  1

  9
$DIMALT
 70
     0
  9
$DIMALTD
 70
     2
  9
$DIMALTF
 40
25.399999999999999
  9
$DIMLFAC
 40
1.0
  9
$DIMTOFL
 70
     0
  9
$DIMTVP
 40
0.0
  9
$DIMTIX
 70
     0
  9
$DIMSOXD
 70
     0
  9
$DIMSAH
 70
     0
  9
$DIMBLK1
  1

  9
$DIMBLK2
  1

  9
$DIMSTYLE
  2
STANDARD
  9
$DIMCLRD
 70
     0
  9
$DIMCLRE
 70
     0
  9
$DIMCLRT
 70
     0
  9
$DIMTFAC
 40
1.0
  9
$DIMGAP
 40
0.09
  9
$LUNITS
 70
     2
  9
$LUPREC
 70
     3
  9
$SKETCHINC
 40
0.1
  9
$FILLETRAD
 40
0.0
  9
$AUNITS
 70
     0
  9
$AUPREC
 70
     2
  9
$MENU
  1
ACAD
  9
$ELEVATION
 40
0.0
  9
$PELEVATION
 40
0.0
  9
$THICKNESS
 40
0.0
  9
$LIMCHECK
 70
     0
  9
$BLIPMODE
 70
     0
  9
$CHAMFERA
 40
0.0
  9
$CHAMFERB
 40
0.0
  9
$SKPOLY
 70
     0
  9
$TDCREATE
 40
2450007.8260131949
  9
$TDUPDATE
 40
2455985.4542217478
  9
$TDINDWG
 40
0.0009424537
  9
$TDUSRTIMER
 40
0.000942419
  9
$USRTIMER
 70
     1
  9
$ANGBASE
 50
0.0
  9
$ANGDIR
 70
     0
  9
$PDMODE
 70
     0
  9
$PDSIZE
 40
0.0
  9
$PLINEWID
 40
0.0
  9
$COORDS
 70
     1
  9
$SPLFRAME
 70
     0
  9
$SPLINETYPE
 70
     6
  9
$SPLINESEGS
 70
     8
  9
$ATTDIA
 70
     0
  9
$ATTREQ
 70
     1
  9
$HANDLING
 70
     1
  9
$HANDSEED
  5
E0B7
  9
$SURFTAB1
 70
     2
  9
$SURFTAB2
 70
     2
  9
$SURFTYPE
 70
     6
  9
$SURFU
 70
     6
  9
$SURFV
 70
     6
  9
$UCSNAME
  2

  9
$UCSORG
 10
0.0
 20
0.0
 30
0.0
  9
$UCSXDIR
 10
1.0
 20
0.0
 30
0.0
  9
$UCSYDIR
 10
0.0
 20
1.0
 30
0.0
  9
$PUCSNAME
  2

  9
$PUCSORG
 10
0.0
 20
0.0
 30
0.0
  9
$PUCSXDIR
 10
1.0
 20
0.0
 30
0.0
  9
$PUCSYDIR
 10
0.0
 20
1.0
 30
0.0
  9
$USERI1
 70
     0
  9
$USERI2
 70
     0
  9
$USERI3
 70
     0
  9
$USERI4
 70
     0
  9
$USERI5
 70
     0
  9
$USERR1
 40
0.0
  9
$USERR2
 40
0.0
  9
$USERR3
 40
0.0
  9
$USERR4
 40
0.0
  9
$USERR5
 40
0.0
  9
$WORLDVIEW
 70
     1
  9
$SHADEDGE
 70
     3
  9
$SHADEDIF
 70
    70
  9
$TILEMODE
 70
     1
  9
$MAXACTVP
 70
    16
  9
$PLIMCHECK
 70
     0
  9
$PEXTMIN
 10
1.0000000000000000E+020
 20
1.0000000000000000E+020
 30
1.0000000000000000E+020
  9
$PEXTMAX
 10
-1.0000000000000000E+020
 20
-1.0000000000000000E+020
 30
-1.0000000000000000E+020
  9
$PLIMMIN
 10
0.0
 20
0.0
  9
$PLIMMAX
 10
12.0
 20
9.0
  9
$UNITMODE
 70
     0
  9
$VISRETAIN
 70
     0
  9
$PLINEGEN
 70
     0
  9
$PSLTSCALE
 70
     1
  0
ENDSEC
  0
SECTION
  2
TABLES
  0
TABLE
  2
VPORT
 70
     1
  0
VPORT
  2
*ACTIVE
 70
     0
 10
0.0
 20
0.0
 11
1.0
 21
1.0
 12
10.52935943060498
 22
4.5
 13
0.0
 23
0.0
 14
1.0
 24
1.0
 15
0.0
 25
0.0
 16
0.0
 26
0.0
 36
1.0
 17
0.0
 27
0.0
 37
0.0
 40
9.0
 41
2.3398576512455511
 42
50.0
 43
0.0
 44
0.0
 50
0.0
 51
0.0
 71
     0
 72
   100
 73
     1
 74
     1
 75
     0
 76
     0
 77
     0
 78
     0
  0
ENDTAB
  0
TABLE
  2
LTYPE
 70
     1
  0
LTYPE
  2
CONTINUOUS
 70
     0
  3
Durchgezogene Linie
 72
    65
 73
     0
 40
0.0
  0
ENDTAB
  0
TABLE
  2
LAYER
 70
     1
  0
LAYER
  2
0
 70
     0
 62
     7
  6
CONTINUOUS
  0
ENDTAB
  0
TABLE
  2
STYLE
 70
     2
  0
STYLE
  2
STANDARD
 70
     0
 40
0.0
 41
1.0
 50
0.0
 71
     0
 42
0.2
  3
txt
  4

  0
STYLE
  2
ANNOTATIVE
 70
     0
 40
0.0
 41
1.0
 50
0.0
 71
     0
 42
0.2
  3
txt
  4

  0
ENDTAB
  0
TABLE
  2
VIEW
 70
     0
  0
ENDTAB
  0
TABLE
  2
UCS
 70
     0
  0
ENDTAB
  0
TABLE
  2
APPID
 70
     3
  0
APPID
  2
ACAD
 70
     0
  0
APPID
  2
ACADANNOTATIVE
 70
     0
  0
APPID
  2
ACAD_MLEADERVER
 70
     0
  0
ENDTAB
  0
TABLE
  2
DIMSTYLE
 70
     2
  0
DIMSTYLE
  2
STANDARD
 70
     0
  3

  4

  5

  6

  7

 40
1.0
 41
0.18
 42
0.0625
 43
0.38
 44
0.18
 45
0.0
 46
0.0
 47
0.0
 48
0.0
140
0.18
141
0.09
142
0.0
143
25.399999999999999
144
1.0
145
0.0
146
1.0
147
0.09
 71
     0
 72
     0
 73
     1
 74
     1
 75
     0
 76
     0
 77
     0
 78
     0
170
     0
171
     2
172
     0
173
     0
174
     0
175
     0
176
     0
177
     0
178
     0
  0
DIMSTYLE
  2
ANNOTATIVE
 70
     0
  3

  4

  5

  6

  7

 40
1.0
 41
0.18
 42
0.0625
 43
0.38
 44
0.18
 45
0.0
 46
0.0
 47
0.0
 48
0.0
140
0.18
141
0.09
142
0.0
143
25.399999999999999
144
1.0
145
0.0
146
1.0
147
0.09
 71
     0
 72
     0
 73
     1
 74
     1
 75
     0
 76
     0
 77
     0
 78
     0
170
     0
171
     2
172
     0
173
     0
174
     0
175
     0
176
     0
177
     0
178
     0
  0
ENDTAB
  0
ENDSEC
  0
SECTION
  2
BLOCKS
  0
BLOCK
  8
0
  2
$MODEL_SPACE
 70
     0
 10
0.0
 20
0.0
 30
0.0
  3
$MODEL_SPACE
  1

  0
ENDBLK
  5
DEF6
  8
0
  0
BLOCK
 67
     1
  8
0
  2
$PAPER_SPACE
 70
     0
 10
0.0
 20
0.0
 30
0.0
  3
$PAPER_SPACE
  1

  0
ENDBLK
  5
DEF2
 67
     1
  8
0
  0
ENDSEC
  0
SECTION
  2
ENTITIES
  0
ARC
  5
3A09
  8
0
 10
7.0002139999999988
 20
2.1502249999999989
 30
0.0
 40
0.4700720000000001
 50
239.54216400000001
 51
330.00023299999998
  0
LINE
  5
391B
  8
0
 10
6.8224999999999989
 20
2.145
 30
0.0
 11
7.1775000000000002
 21
2.145
 31
0.0
  0
POLYLINE
  5
39EC
  8
0
 66
     1
 10
0.0
 20
0.0
 30
0.0
  0
VERTEX
  5
DFEF
  8
0
 10
7.0
 20
1.7050000000000001
 30
0.0
 42
0.063216
  0
VERTEX
  5
DFF0
  8
0
 10
7.1219089999999987
 20
1.7204749999999991
 30
0.0
 42
0.076297
  0
VERTEX
  5
DFF1
  8
0
 10
7.2156679999999991
 20
1.76065
 30
0.0
 42
0.107127
  0
VERTEX
  5
DFF2
  8
0
 10
7.2846390000000003
 20
1.827604
 30
0.0
 42
0.14776
  0
VERTEX
  5
DFF3
  8
0
 10
7.3049999999999988
 20
1.8949999999999989
 30
0.0
 42
0.14776
  0
VERTEX
  5
DFF4
  8
0
 10
7.2846390000000003
 20
1.9623959999999989
 30
0.0
 42
0.184702
  0
VERTEX
  5
DFF5
  8
0
 10
7.1950000000000003
 20
2.044999999999999
 30
0.0
  0
SEQEND
  5
DFF6
  8
0
  0
ARC
  5
3A1F
  8
0
 10
6.9854529999999988
 20
1.8087340000000001
 30
0.0
 40
0.276648
 50
42.321809000000002
 51
86.985838999999999
  0
ARC
  5
3A21
  8
0
 10
7.0055129999999997
 20
2.018899999999999
 30
0.0
 40
0.260574
 50
276.49754999999999
 51
313.53623700000003
  0
CIRCLE
  5
393F
  8
0
 10
7.1449999999999987
 20
2.0800000000000001
 30
0.0
 40
0.0175
  0
LINE
  5
3941
  8
0
 10
7.125
 20
2.0800000000000001
 30
0.0
 11
7.165
 21
2.0800000000000001
 31
0.0
  0
LINE
  5
6520
  8
0
 10
6.8224999999999989
 20
2.145
 30
0.0
 11
6.5926899999999993
 21
1.9151899999999999
 31
0.0
  0
POLYLINE
  5
3975
  8
0
 66
     1
 10
0.0
 20
0.0
 30
0.0
  0
VERTEX
  5
DFE5
  8
0
 10
7.0
 20
2.0849999999999991
 30
0.0
 42
0.063216
  0
VERTEX
  5
DFE6
  8
0
 10
6.8780910000000004
 20
2.0695250000000001
 30
0.0
 42
0.076297
  0
VERTEX
  5
DFE7
  8
0
 10
6.784332
 20
2.0293499999999991
 30
0.0
 42
0.107127
  0
VERTEX
  5
DFE8
  8
0
 10
6.7153609999999988
 20
1.9623959999999989
 30
0.0
 42
0.14776
  0
VERTEX
  5
DFE9
  8
0
 10
6.6950000000000003
 20
1.8949999999999989
 30
0.0
 42
0.14776
  0
VERTEX
  5
DFEA
  8
0
 10
6.7153609999999988
 20
1.827604
 30
0.0
 42
0.107127
  0
VERTEX
  5
DFEB
  8
0
 10
6.784332
 20
1.76065
 30
0.0
 42
0.076297
  0
VERTEX
  5
DFEC
  8
0
 10
6.8780910000000004
 20
1.7204749999999991
 30
0.0
 42
0.063216
  0
VERTEX
  5
DFED
  8
0
 10
7.0
 20
1.7050000000000001
 30
0.0
 42
0.063216
  0
SEQEND
  5
DFEE
  8
0
  0
CIRCLE
  5
3937
  8
0
 10
7.0
 20
2.004999999999999
 30
0.0
 40
0.035
  0
LINE
  5
3938
  8
0
 10
7.0
 20
2.044999999999999
 30
0.0
 11
7.0
 21
1.9650000000000001
 31
0.0
  0
CIRCLE
  5
3936
  8
0
 10
7.0
 20
2.004999999999999
 30
0.0
 40
0.025
  0
LINE
  5
3939
  8
0
 10
6.9599999999999991
 20
2.004999999999999
 30
0.0
 11
7.04
 21
2.004999999999999
 31
0.0
  0
LINE
  5
6524
  8
0
 10
7.1775000000000002
 20
2.145
 30
0.0
 11
7.4073099999999998
 21
1.9151899999999999
 31
0.0
  0
ARC
  5
3A20
  8
0
 10
7.1015509999999988
 20
1.9151049999999989
 30
0.0
 40
0.119191
 50
314.43721599999998
 51
42.091374999999992
  0
ARC
  5
3981
  8
0
 10
7.2249999999999988
 20
1.8949999999999989
 30
0.0
 40
0.025
 50
323.13010200000002
 51
36.869897999999999
  0
ARC
  5
3980
  8
0
 10
7.25
 20
1.8949999999999989
 30
0.0
 40
0.025
 50
323.13010200000002
 51
36.869897999999999
  0
LINE
  5
3940
  8
0
 10
7.1449999999999987
 20
2.1000000000000001
 30
0.0
 11
7.1449999999999987
 21
2.0600000000000001
 31
0.0
  0
LINE
  5
6521
  8
0
 10
6.5926899999999993
 20
1.9151899999999999
 30
0.0
 11
5.5320299999999998
 21
0.8545299999999999
 31
0.0
  0
LINE
  5
6523
  8
0
 10
5.7017360000000004
 20
0.684824
 30
0.0
 11
6.7619329999999991
 21
1.745020999999999
 31
0.0
  0
LINE
  5
6522
  8
0
 10
5.5320299999999998
 20
0.8545299999999999
 30
0.0
 11
5.7017360000000004
 21
0.684824
 31
0.0
  0
ARC
  5
DF14
  8
0
 39
0.06
 10
8.4163440374212328
 20
2.0968997193746679
 30
0.7900000000000002
 40
0.470288
 50
209.99312399999999
 51
300.44019199999991
  0
LINE
  5
DF15
  8
0
 39
0.1
 10
8.2388440374212326
 20
2.091614719374669
 30
0.7900000000000002
 11
8.5938440374212313
 21
2.091614719374669
 31
0.7900000000000002
  0
POLYLINE
  5
DF16
  8
0
 66
     1
 10
0.0
 20
0.0
 30
0.63
 39
0.22
  0
VERTEX
  5
E015
  8
0
 10
8.4163440374212328
 20
2.031614719374669
 30
0.63
 42
0.063216
  0
VERTEX
  5
E016
  8
0
 10
8.2944350374212323
 20
2.0161397193746691
 30
0.63
 42
0.076297
  0
VERTEX
  5
E017
  8
0
 10
8.2006760374212302
 20
1.9759647193746681
 30
0.63
 42
0.107127
  0
VERTEX
  5
E018
  8
0
 10
8.1317050374212325
 20
1.9090107193746679
 30
0.63
 42
0.14776
  0
VERTEX
  5
E019
  8
0
 10
8.1113440374212313
 20
1.841614719374669
 30
0.63
 42
0.14776
  0
VERTEX
  5
E01A
  8
0
 10
8.1317050374212325
 20
1.774218719374669
 30
0.63
 42
0.107127
  0
VERTEX
  5
E01B
  8
0
 10
8.2006760374212302
 20
1.7072647193746679
 30
0.63
 42
0.076297
  0
VERTEX
  5
E01C
  8
0
 10
8.2944350374212323
 20
1.6670897193746681
 30
0.63
 42
0.063216
  0
VERTEX
  5
E01D
  8
0
 10
8.4163440374212328
 20
1.651614719374668
 30
0.63
 42
0.063216
  0
SEQEND
  5
E01E
  8
0
  0
ARC
  5
DF17
  8
0
 39
0.22
 10
8.4017970374212325
 20
1.755348719374668
 30
0.63
 40
0.276648
 50
42.321808999999988
 51
86.98583899999997
  0
POLYLINE
  5
DF18
  8
0
 66
     1
 10
0.0
 20
0.0
 30
0.63
 39
0.22
  0
VERTEX
  5
E01F
  8
0
 10
8.4163440374212328
 20
1.651614719374668
 30
0.63
 42
0.063216
  0
VERTEX
  5
E020
  8
0
 10
8.5382530374212315
 20
1.6670897193746681
 30
0.63
 42
0.076297
  0
VERTEX
  5
E021
  8
0
 10
8.6320120374212301
 20
1.7072647193746679
 30
0.63
 42
0.107127
  0
VERTEX
  5
E022
  8
0
 10
8.7009830374212314
 20
1.774218719374669
 30
0.63
 42
0.14776
  0
VERTEX
  5
E023
  8
0
 10
8.7213440374212325
 20
1.841614719374669
 30
0.63
 42
0.14776
  0
VERTEX
  5
E024
  8
0
 10
8.7009830374212314
 20
1.9090107193746679
 30
0.63
 42
0.184702
  0
VERTEX
  5
E025
  8
0
 10
8.6113440374212313
 20
1.9916147193746689
 30
0.63
  0
SEQEND
  5
E026
  8
0
  0
LINE
  5
DF19
  8
0
 10
8.4163440374212328
 20
1.9916147193746689
 30
0.63
 11
8.4163440374212328
 21
1.9116147193746691
 31
0.63
  0
CIRCLE
  5
DF1A
  8
0
 10
8.4163440374212328
 20
1.9516147193746689
 30
0.63
 40
0.035
  0
ARC
  5
DF1B
  8
0
 39
0.22
 10
8.5178950374212317
 20
1.8617197193746691
 30
0.63
 40
0.119191
 50
314.43721599999998
 51
42.091374999999992
  0
ARC
  5
DF1C
  8
0
 39
0.22
 10
8.4218570374212316
 20
1.965514719374668
 30
0.63
 40
0.260574
 50
276.49754999999988
 51
313.53623700000003
  0
LINE
  5
DF1D
  8
0
 10
8.3763440374212301
 20
1.9516147193746689
 30
0.63
 11
8.4563440374212302
 21
1.9516147193746689
 31
0.63
  0
CIRCLE
  5
DF1E
  8
0
 10
8.4163440374212328
 20
1.9516147193746689
 30
0.63
 40
0.025
  0
ARC
  5
DF1F
  8
0
 10
8.6413440374212325
 20
1.841614719374669
 30
0.85
 40
0.025
 50
323.13010200000002
 51
36.869897999999992
  0
ARC
  5
DF20
  8
0
 10
8.6663440374212328
 20
1.841614719374669
 30
0.85
 40
0.025
 50
323.13010200000002
 51
36.869897999999992
  0
LINE
  5
DF21
  8
0
 10
8.5413440374212328
 20
2.0266147193746682
 30
0.85
 11
8.5813440374212302
 21
2.0266147193746682
 31
0.85
  0
LINE
  5
DF22
  8
0
 10
8.5613440374212324
 20
2.0466147193746691
 30
0.85
 11
8.5613440374212324
 21
2.0066147193746691
 31
0.85
  0
CIRCLE
  5
DF23
  8
0
 10
8.5613440374212324
 20
2.0266147193746682
 30
0.85
 40
0.0175
  0
LINE
  5
DF24
  8
0
 39
0.1
 10
8.2388440374212326
 20
2.091614719374669
 30
0.7900000000000002
 11
8.0090340374212321
 21
1.861804719374669
 31
0.7900000000000002
  0
LINE
  5
DF25
  8
0
 39
0.1
 10
8.5938440374212313
 20
2.091614719374669
 30
0.7900000000000002
 11
8.8236540374212318
 21
1.861804719374669
 31
0.7900000000000002
  0
LINE
  5
DF26
  8
0
 39
0.1
 10
8.8236540374212318
 20
1.861804719374669
 30
0.7900000000000002
 11
9.8843140374212322
 21
0.8011447193746693
 31
0.7900000000000002
  0
LINE
  5
DF27
  8
0
 39
0.06
 10
9.8843140374212322
 20
0.8011447193746693
 30
0.7900000000000002
 11
9.7146080374212325
 21
0.6314387193746694
 31
0.7900000000000002
  0
LINE
  5
DF28
  8
0
 39
0.06
 10
9.7146080374212325
 20
0.6314387193746694
 30
0.7900000000000002
 11
8.6546100374212322
 21
1.691437719374669
 31
0.7900000000000002
  0
ARC
  5
DF3F
  8
0
 39
0.06
 10
7.7122531049405927
 20
3.0147676336060409
 30
0.7900000000000002
 40
0.470288
 50
209.99312399999999
 51
330.00687599999998
  0
LINE
  5
DF40
  8
0
 39
0.1
 10
7.5347531049405934
 20
3.0094826336060412
 30
0.7900000000000002
 11
7.889753104940592
 21
3.0094826336060412
 31
0.7900000000000002
  0
POLYLINE
  5
DF41
  8
0
 66
     1
 10
0.0
 20
0.0
 30
0.63
 39
0.22
  0
VERTEX
  5
E039
  8
0
 10
7.7122531049405927
 20
2.949482633606042
 30
0.63
 42
0.063216
  0
VERTEX
  5
E03A
  8
0
 10
7.5903441049405931
 20
2.9340076336060412
 30
0.63
 42
0.076297
  0
VERTEX
  5
E03B
  8
0
 10
7.4965851049405918
 20
2.8938326336060411
 30
0.63
 42
0.107127
  0
VERTEX
  5
E03C
  8
0
 10
7.4276141049405933
 20
2.8268786336060412
 30
0.63
 42
0.14776
  0
VERTEX
  5
E03D
  8
0
 10
7.4072531049405921
 20
2.7594826336060412
 30
0.63
 42
0.14776
  0
VERTEX
  5
E03E
  8
0
 10
7.4276141049405933
 20
2.6920866336060421
 30
0.63
 42
0.107127
  0
VERTEX
  5
E03F
  8
0
 10
7.4965851049405918
 20
2.6251326336060412
 30
0.63
 42
0.076297
  0
VERTEX
  5
E040
  8
0
 10
7.5903441049405931
 20
2.5849576336060411
 30
0.63
 42
0.063216
  0
VERTEX
  5
E041
  8
0
 10
7.7122531049405927
 20
2.5694826336060408
 30
0.63
 42
0.063216
  0
SEQEND
  5
E042
  8
0
  0
ARC
  5
DF42
  8
0
 39
0.22
 10
7.6977061049405933
 20
2.673216633606041
 30
0.63
 40
0.276648
 50
42.321808999999988
 51
86.98583899999997
  0
POLYLINE
  5
DF43
  8
0
 66
     1
 10
0.0
 20
0.0
 30
0.63
 39
0.22
  0
VERTEX
  5
E043
  8
0
 10
7.7122531049405927
 20
2.5694826336060408
 30
0.63
 42
0.063216
  0
VERTEX
  5
E044
  8
0
 10
7.8341621049405923
 20
2.5849576336060411
 30
0.63
 42
0.076297
  0
VERTEX
  5
E045
  8
0
 10
7.9279211049405918
 20
2.6251326336060412
 30
0.63
 42
0.107127
  0
VERTEX
  5
E046
  8
0
 10
7.9968921049405921
 20
2.6920866336060421
 30
0.63
 42
0.14776
  0
VERTEX
  5
E047
  8
0
 10
8.0172531049405933
 20
2.7594826336060412
 30
0.63
 42
0.14776
  0
VERTEX
  5
E048
  8
0
 10
7.9968921049405921
 20
2.8268786336060412
 30
0.63
 42
0.184702
  0
VERTEX
  5
E049
  8
0
 10
7.9072531049405921
 20
2.9094826336060411
 30
0.63
  0
SEQEND
  5
E04A
  8
0
  0
LINE
  5
DF44
  8
0
 10
7.7122531049405927
 20
2.9094826336060411
 30
0.63
 11
7.7122531049405927
 21
2.829482633606041
 31
0.63
  0
CIRCLE
  5
DF45
  8
0
 10
7.7122531049405927
 20
2.8694826336060411
 30
0.63
 40
0.035
  0
ARC
  5
DF46
  8
0
 39
0.22
 10
7.8138041049405924
 20
2.7795876336060412
 30
0.63
 40
0.119191
 50
314.43721599999998
 51
42.091374999999992
  0
ARC
  5
DF47
  8
0
 39
0.22
 10
7.7177661049405923
 20
2.8833826336060411
 30
0.63
 40
0.260574
 50
276.49754999999988
 51
313.53623700000003
  0
LINE
  5
DF48
  8
0
 10
7.6722531049405918
 20
2.8694826336060411
 30
0.63
 11
7.7522531049405918
 21
2.8694826336060411
 31
0.63
  0
CIRCLE
  5
DF49
  8
0
 10
7.7122531049405927
 20
2.8694826336060411
 30
0.63
 40
0.025
  0
ARC
  5
DF4A
  8
0
 10
7.9372531049405932
 20
2.7594826336060412
 30
0.85
 40
0.025
 50
323.13010200000002
 51
36.869897999999992
  0
ARC
  5
DF4B
  8
0
 10
7.9622531049405927
 20
2.7594826336060412
 30
0.85
 40
0.025
 50
323.13010200000002
 51
36.869897999999992
  0
LINE
  5
DF4C
  8
0
 10
7.8372531049405927
 20
2.9444826336060408
 30
0.85
 11
7.8772531049405918
 21
2.9444826336060408
 31
0.85
  0
LINE
  5
DF4D
  8
0
 10
7.8572531049405931
 20
2.9644826336060408
 30
0.85
 11
7.8572531049405931
 21
2.9244826336060412
 31
0.85
  0
CIRCLE
  5
DF4E
  8
0
 10
7.8572531049405931
 20
2.9444826336060408
 30
0.85
 40
0.0175
  0
LINE
  5
DF4F
  8
0
 39
0.1
 10
7.5347531049405934
 20
3.0094826336060412
 30
0.7900000000000002
 11
7.304943104940592
 21
2.7796726336060411
 31
0.7900000000000002
  0
LINE
  5
DF50
  8
0
 39
0.1
 10
7.889753104940592
 20
3.0094826336060412
 30
0.7900000000000002
 11
8.1195631049405925
 21
2.7796726336060411
 31
0.7900000000000002
  0
LINE
  5
DF79
  8
0
 39
0.06
 10
6.136792720787354
 20
4.1127463638528656
 30
0.7900000000000002
 11
6.136792720787354
 21
3.8727463638528659
 31
0.7900000000000002
  0
ARC
  5
DF7A
  8
0
 39
0.06
 10
6.5367927207873553
 20
4.1158023638528656
 30
0.7900000000000002
 40
0.468056
 50
211.284493
 51
328.715507
  0
LINE
  5
DF7B
  8
0
 39
0.06
 10
8.336792720787356
 20
3.8727463638528659
 30
0.7900000000000002
 11
6.9367927207873548
 21
3.8727463638528659
 31
0.7900000000000002
  0
LINE
  5
DF7C
  8
0
 39
0.1
 10
6.9367927207873548
 20
4.1127463638528656
 30
0.7900000000000002
 11
8.336792720787356
 21
4.1127463638528656
 31
0.7900000000000002
  0
POLYLINE
  5
DF7D
  8
0
 66
     1
 10
0.0
 20
0.0
 30
0.63
 39
0.22
  0
VERTEX
  5
E06F
  8
0
 10
6.5367927207873553
 20
4.052746363852866
 30
0.63
 42
0.063216
  0
VERTEX
  5
E070
  8
0
 10
6.4148837207873557
 20
4.0372713638528657
 30
0.63
 42
0.076297
  0
VERTEX
  5
E071
  8
0
 10
6.3211247207873562
 20
3.997096363852866
 30
0.63
 42
0.107127
  0
VERTEX
  5
E072
  8
0
 10
6.2521537207873541
 20
3.9301423638528661
 30
0.63
 42
0.14776
  0
VERTEX
  5
E073
  8
0
 10
6.2317927207873547
 20
3.8627463638528661
 30
0.63
 42
0.14776
  0
VERTEX
  5
E074
  8
0
 10
6.2521537207873541
 20
3.7953503638528661
 30
0.63
 42
0.107127
  0
VERTEX
  5
E075
  8
0
 10
6.3211247207873562
 20
3.7283963638528661
 30
0.63
 42
0.076297
  0
VERTEX
  5
E076
  8
0
 10
6.4148837207873557
 20
3.688221363852866
 30
0.63
 42
0.063216
  0
VERTEX
  5
E077
  8
0
 10
6.5367927207873553
 20
3.6727463638528661
 30
0.63
 42
0.063216
  0
SEQEND
  5
E078
  8
0
  0
LINE
  5
DF7E
  8
0
 39
0.1
 10
6.136792720787354
 20
4.1127463638528656
 30
0.7900000000000002
 11
6.9367927207873548
 21
4.1127463638528656
 31
0.7900000000000002
  0
ARC
  5
DF7F
  8
0
 39
0.22
 10
6.5222457207873541
 20
3.776480363852865
 30
0.63
 40
0.276648
 50
42.321808999999988
 51
86.98583899999997
  0
POLYLINE
  5
DF80
  8
0
 66
     1
 10
0.0
 20
0.0
 30
0.63
 39
0.22
  0
VERTEX
  5
E079
  8
0
 10
6.5367927207873553
 20
3.6727463638528661
 30
0.63
 42
0.063216
  0
VERTEX
  5
E07A
  8
0
 10
6.6587017207873549
 20
3.688221363852866
 30
0.63
 42
0.076297
  0
VERTEX
  5
E07B
  8
0
 10
6.7524607207873544
 20
3.7283963638528661
 30
0.63
 42
0.107127
  0
VERTEX
  5
E07C
  8
0
 10
6.8214317207873547
 20
3.7953503638528661
 30
0.63
 42
0.14776
  0
VERTEX
  5
E07D
  8
0
 10
6.841792720787355
 20
3.8627463638528661
 30
0.63
 42
0.14776
  0
VERTEX
  5
E07E
  8
0
 10
6.8214317207873547
 20
3.9301423638528661
 30
0.63
 42
0.184702
  0
VERTEX
  5
E07F
  8
0
 10
6.7317927207873547
 20
4.0127463638528651
 30
0.63
  0
SEQEND
  5
E080
  8
0
  0
LINE
  5
DF81
  8
0
 10
6.5367927207873553
 20
4.0127463638528651
 30
0.63
 11
6.5367927207873553
 21
3.9327463638528659
 31
0.63
  0
CIRCLE
  5
DF82
  8
0
 10
6.5367927207873553
 20
3.9727463638528659
 30
0.63
 40
0.035
  0
ARC
  5
DF83
  8
0
 39
0.22
 10
6.542305720787355
 20
3.986646363852866
 30
0.63
 40
0.260574
 50
276.49754999999988
 51
313.53623700000003
  0
LINE
  5
DF84
  8
0
 10
6.4967927207873561
 20
3.9727463638528659
 30
0.63
 11
6.5767927207873562
 21
3.9727463638528659
 31
0.63
  0
CIRCLE
  5
DF85
  8
0
 10
6.5367927207873553
 20
3.9727463638528659
 30
0.63
 40
0.025
  0
ARC
  5
DF86
  8
0
 39
0.22
 10
6.6383437207873541
 20
3.8828513638528661
 30
0.63
 40
0.119191
 50
314.43721599999998
 51
42.091374999999992
  0
ARC
  5
DF87
  8
0
 10
6.761792720787354
 20
3.8627463638528661
 30
0.85
 40
0.025
 50
323.13010200000002
 51
36.869897999999978
  0
ARC
  5
DF88
  8
0
 10
6.7867927207873553
 20
3.8627463638528661
 30
0.85
 40
0.025
 50
323.13010200000002
 51
36.869897999999978
  0
LINE
  5
DF89
  8
0
 10
6.6617927207873553
 20
4.0477463638528661
 30
0.85
 11
6.7017927207873562
 21
4.0477463638528661
 31
0.85
  0
LINE
  5
DF8A
  8
0
 10
6.681792720787354
 20
4.0677463638528657
 30
0.85
 11
6.681792720787354
 21
4.0277463638528657
 31
0.85
  0
CIRCLE
  5
DF8B
  8
0
 10
6.681792720787354
 20
4.0477463638528661
 30
0.85
 40
0.0175
  0
ARC
  5
DF8C
  8
0
 39
0.22
 10
8.8383437207873552
 20
3.8828513638528661
 30
0.63
 40
0.119191
 50
314.43721599999998
 51
42.091374999999992
  0
ARC
  5
DF8D
  8
0
 39
0.22
 10
8.7423057207873551
 20
3.986646363852866
 30
0.63
 40
0.260574
 50
276.49754999999988
 51
313.53623700000003
  0
POLYLINE
  5
DF8E
  8
0
 66
     1
 10
0.0
 20
0.0
 30
0.63
 39
0.22
  0
VERTEX
  5
E081
  8
0
 10
8.7367927207873564
 20
3.6727463638528661
 30
0.63
 42
0.063216
  0
VERTEX
  5
E082
  8
0
 10
8.8587017207873551
 20
3.688221363852866
 30
0.63
 42
0.076297
  0
VERTEX
  5
E083
  8
0
 10
8.9524607207873554
 20
3.7283963638528661
 30
0.63
 42
0.107127
  0
VERTEX
  5
E084
  8
0
 10
9.0214317207873531
 20
3.7953503638528661
 30
0.63
 42
0.14776
  0
VERTEX
  5
E085
  8
0
 10
9.0417927207873561
 20
3.8627463638528661
 30
0.63
 42
0.14776
  0
VERTEX
  5
E086
  8
0
 10
9.0214317207873531
 20
3.9301423638528661
 30
0.63
 42
0.184702
  0
VERTEX
  5
E087
  8
0
 10
8.9317927207873549
 20
4.0127463638528651
 30
0.63
  0
SEQEND
  5
E088
  8
0
  0
ARC
  5
DF8F
  8
0
 39
0.22
 10
8.722245720787356
 20
3.776480363852865
 30
0.63
 40
0.276648
 50
42.321808999999988
 51
86.98583899999997
  0
POLYLINE
  5
DF90
  8
0
 66
     1
 10
0.0
 20
0.0
 30
0.63
 39
0.22
  0
VERTEX
  5
E089
  8
0
 10
8.7367927207873564
 20
4.052746363852866
 30
0.63
 42
0.063216
  0
VERTEX
  5
E08A
  8
0
 10
8.6148837207873559
 20
4.0372713638528657
 30
0.63
 42
0.076297
  0
VERTEX
  5
E08B
  8
0
 10
8.5211247207873555
 20
3.997096363852866
 30
0.63
 42
0.107127
  0
VERTEX
  5
E08C
  8
0
 10
8.4521537207873561
 20
3.9301423638528661
 30
0.63
 42
0.14776
  0
VERTEX
  5
E08D
  8
0
 10
8.4317927207873549
 20
3.8627463638528661
 30
0.63
 42
0.14776
  0
VERTEX
  5
E08E
  8
0
 10
8.4521537207873561
 20
3.7953503638528661
 30
0.63
 42
0.107127
  0
VERTEX
  5
E08F
  8
0
 10
8.5211247207873555
 20
3.7283963638528661
 30
0.63
 42
0.076297
  0
VERTEX
  5
E090
  8
0
 10
8.6148837207873559
 20
3.688221363852866
 30
0.63
 42
0.063216
  0
VERTEX
  5
E091
  8
0
 10
8.7367927207873564
 20
3.6727463638528661
 30
0.63
 42
0.063216
  0
SEQEND
  5
E092
  8
0
  0
LINE
  5
DF91
  8
0
 10
8.6967927207873554
 20
3.9727463638528659
 30
0.63
 11
8.7767927207873555
 21
3.9727463638528659
 31
0.63
  0
CIRCLE
  5
DF92
  8
0
 10
8.7367927207873564
 20
3.9727463638528659
 30
0.63
 40
0.035
  0
CIRCLE
  5
DF93
  8
0
 10
8.7367927207873564
 20
3.9727463638528659
 30
0.63
 40
0.025
  0
LINE
  5
DF94
  8
0
 10
8.7367927207873564
 20
4.0127463638528651
 30
0.63
 11
8.7367927207873564
 21
3.9327463638528659
 31
0.63
  0
LINE
  5
DF95
  8
0
 39
0.1
 10
8.336792720787356
 20
4.1127463638528656
 30
0.7900000000000002
 11
9.1367927207873532
 21
4.1127463638528656
 31
0.7900000000000002
  0
ARC
  5
DF96
  8
0
 39
0.06
 10
8.7367927207873564
 20
4.1158023638528656
 30
0.7900000000000002
 40
0.468056
 50
211.284493
 51
328.715507
  0
LINE
  5
DF97
  8
0
 39
0.06
 10
9.1367927207873532
 20
4.1127463638528656
 30
0.7900000000000002
 11
9.1367927207873532
 21
3.8727463638528659
 31
0.7900000000000002
  0
ARC
  5
DF98
  8
0
 10
8.9867927207873564
 20
3.8627463638528661
 30
0.85
 40
0.025
 50
323.13010200000002
 51
36.869897999999978
  0
ARC
  5
DF99
  8
0
 10
8.961792720787356
 20
3.8627463638528661
 30
0.85
 40
0.025
 50
323.13010200000002
 51
36.869897999999978
  0
CIRCLE
  5
DF9A
  8
0
 10
8.8817927207873542
 20
4.0477463638528661
 30
0.85
 40
0.0175
  0
LINE
  5
DF9B
  8
0
 10
8.8817927207873542
 20
4.0677463638528657
 30
0.85
 11
8.8817927207873542
 21
4.0277463638528657
 31
0.85
  0
LINE
  5
DF9C
  8
0
 10
8.8617927207873564
 20
4.0477463638528661
 30
0.85
 11
8.9017927207873555
 21
4.0477463638528661
 31
0.85
  0
LINE
  5
DFB7
  8
0
 39
0.06
 10
6.5368439382462347
 20
5.140630547777409
 30
0.7900000000000002
 11
7.3868439382462361
 21
5.140630547777409
 31
0.7900000000000002
  0
LINE
  5
DFB8
  8
0
 39
0.1
 10
7.3868439382462361
 20
5.3806305477774101
 30
0.7900000000000002
 11
6.5368439382462347
 21
5.3806305477774101
 31
0.7900000000000002
  0
LINE
  5
DFB9
  8
0
 39
0.06
 10
6.5368439382462347
 20
5.3806305477774101
 30
0.7900000000000002
 11
6.5368439382462347
 21
5.140630547777409
 31
0.7900000000000002
  0
ARC
  5
DFBA
  8
0
 39
0.06
 10
7.7868439382462347
 20
5.3836865477774101
 30
0.7900000000000002
 40
0.468056
 50
211.284493
 51
328.715507
  0
LINE
  5
DFBB
  8
0
 39
0.06
 10
9.0368439382462356
 20
5.140630547777409
 30
0.7900000000000002
 11
8.1868439382462341
 21
5.140630547777409
 31
0.7900000000000002
  0
LINE
  5
DFBC
  8
0
 39
0.1
 10
8.1868439382462341
 20
5.3806305477774101
 30
0.7900000000000002
 11
9.0368439382462356
 21
5.3806305477774101
 31
0.7900000000000002
  0
POLYLINE
  5
DFBD
  8
0
 66
     1
 10
0.0
 20
0.0
 30
0.63
 39
0.22
  0
VERTEX
  5
E0A5
  8
0
 10
7.7868439382462347
 20
5.3206305477774087
 30
0.63
 42
0.063216
  0
VERTEX
  5
E0A6
  8
0
 10
7.664934938246236
 20
5.3051555477774102
 30
0.63
 42
0.076297
  0
VERTEX
  5
E0A7
  8
0
 10
7.5711759382462356
 20
5.2649805477774088
 30
0.63
 42
0.107127
  0
VERTEX
  5
E0A8
  8
0
 10
7.502204938246237
 20
5.1980265477774088
 30
0.63
 42
0.14776
  0
VERTEX
  5
E0A9
  8
0
 10
7.4818439382462349
 20
5.1306305477774101
 30
0.63
 42
0.14776
  0
VERTEX
  5
E0AA
  8
0
 10
7.502204938246237
 20
5.0632345477774097
 30
0.63
 42
0.107127
  0
VERTEX
  5
E0AB
  8
0
 10
7.5711759382462356
 20
4.9962805477774088
 30
0.63
 42
0.076297
  0
VERTEX
  5
E0AC
  8
0
 10
7.664934938246236
 20
4.9561055477774101
 30
0.63
 42
0.063216
  0
VERTEX
  5
E0AD
  8
0
 10
7.7868439382462347
 20
4.9406305477774088
 30
0.63
 42
0.063216
  0
SEQEND
  5
E0AE
  8
0
  0
LINE
  5
DFBE
  8
0
 39
0.1
 10
7.3868439382462361
 20
5.3806305477774101
 30
0.7900000000000002
 11
8.1868439382462341
 21
5.3806305477774101
 31
0.7900000000000002
  0
ARC
  5
DFBF
  8
0
 39
0.22
 10
7.7722969382462352
 20
5.0443645477774091
 30
0.63
 40
0.276648
 50
42.321808999999988
 51
86.98583899999997
  0
POLYLINE
  5
DFC0
  8
0
 66
     1
 10
0.0
 20
0.0
 30
0.63
 39
0.22
  0
VERTEX
  5
E0AF
  8
0
 10
7.7868439382462347
 20
4.9406305477774088
 30
0.63
 42
0.063216
  0
VERTEX
  5
E0B0
  8
0
 10
7.908752938246236
 20
4.9561055477774101
 30
0.63
 42
0.076297
  0
VERTEX
  5
E0B1
  8
0
 10
8.0025119382462346
 20
4.9962805477774088
 30
0.63
 42
0.107127
  0
VERTEX
  5
E0B2
  8
0
 10
8.0714829382462359
 20
5.0632345477774097
 30
0.63
 42
0.14776
  0
VERTEX
  5
E0B3
  8
0
 10
8.0918439382462353
 20
5.1306305477774101
 30
0.63
 42
0.14776
  0
VERTEX
  5
E0B4
  8
0
 10
8.0714829382462359
 20
5.1980265477774088
 30
0.63
 42
0.184702
  0
VERTEX
  5
E0B5
  8
0
 10
7.9818439382462349
 20
5.2806305477774087
 30
0.63
  0
SEQEND
  5
E0B6
  8
0
  0
LINE
  5
DFC1
  8
0
 10
7.7868439382462347
 20
5.2806305477774087
 30
0.63
 11
7.7868439382462347
 21
5.2006305477774086
 31
0.63
  0
CIRCLE
  5
DFC2
  8
0
 10
7.7868439382462347
 20
5.2406305477774104
 30
0.63
 40
0.035
  0
ARC
  5
DFC3
  8
0
 39
0.22
 10
7.7923569382462361
 20
5.25453054777741
 30
0.63
 40
0.260574
 50
276.49754999999988
 51
313.53623700000003
  0
LINE
  5
DFC4
  8
0
 10
7.7468439382462364
 20
5.2406305477774104
 30
0.63
 11
7.8268439382462356
 21
5.2406305477774104
 31
0.63
  0
CIRCLE
  5
DFC5
  8
0
 10
7.7868439382462347
 20
5.2406305477774104
 30
0.63
 40
0.025
  0
ARC
  5
DFC6
  8
0
 39
0.22
 10
7.8883949382462362
 20
5.1507355477774102
 30
0.63
 40
0.119191
 50
314.43721599999998
 51
42.091374999999992
  0
ARC
  5
DFC7
  8
0
 10
8.0118439382462352
 20
5.1306305477774101
 30
0.85
 40
0.025
 50
323.13010200000002
 51
36.869897999999978
  0
ARC
  5
DFC8
  8
0
 10
8.0368439382462356
 20
5.1306305477774101
 30
0.85
 40
0.025
 50
323.13010200000002
 51
36.869897999999978
  0
LINE
  5
DFC9
  8
0
 10
7.9118439382462347
 20
5.3156305477774088
 30
0.85
 11
7.9518439382462356
 21
5.3156305477774088
 31
0.85
  0
LINE
  5
DFCA
  8
0
 10
7.931843938246236
 20
5.3356305477774102
 30
0.85
 11
7.931843938246236
 21
5.2956305477774102
 31
0.85
  0
CIRCLE
  5
DFCB
  8
0
 10
7.931843938246236
 20
5.3156305477774088
 30
0.85
 40
0.0175
  0
LINE
  5
DFCC
  8
0
 39
0.06
 10
9.0368439382462356
 20
5.3806305477774101
 30
0.7900000000000002
 11
9.0368439382462356
 21
5.140630547777409
 31
0.7900000000000002
  0
ENDSEC
  0
EOF
